Fleetwood Mac - Book Of Love Chords & Tabs

 

Book Of Love Chords & Tabs

Fleetwood Mac Chords & Tabs

Version: 1 Type: Tab 0 ratings
1 star 2 stars 3 stars 4 stars 5 stars
comments

Book Of Love Tab

   
Intro
   E                  B              E          A
|--------------------------------------|
|--------------------------------------|
|-- 9--9----4--4----9--9-----2---2-----|
|-- 9--9----4--4----9--9-----2---2-----| Electric
|-7--7----2--2----7--7----0----0-------|
|--------------------------------------|
|                                        |
|-----0--------0---------0------0--------|
|----------------------------------------| Acoustic Guitar - in background
|----------------------------------------|
|--9-----9-9----------9-------9----------|
|----------------------------------------|
|----------------------------------------|


Verse

E                B
Walked out, goodbye
E       A
I swore I never would cry
E           B           E
Tore a page of my heart
E            B
She wants me to be her friend
E      A
I'm lonely again
E                 B      E
Tore a page of my heart


Chorus

B                         B        A
Oh, tell me who wrote the book of love
B               Cm     A
Was it somebody from above
(Ha, ha, ha)
B                   Cm       A
Surely he must know all the rules
(Ha, ha, ha)
B                       Cm       A
Knowledge not meant for mortal fools
B                      Cm     A
Must have been someone from above
B                      Cm        E
Tell me, who wrote the book of love


Verse

In silence the lonely make all their mistakes
Tore a page of my heart
Someone in heaven above
Shop me how to love
Tore a page of my heart


Chorus

Oh, tell me who wrote the book of love
Was it somebody from above
(Ha, ha, ha)
Surely he must know all the rules
(Ha, ha, ha)
Knowledge not meant for mortal fools
Must have been someone from above
Tell me, who wrote the book of love


Chorus/Outro-Solo

Oh, tell me who wrote the book of love
Was it somebody from above
(Ha, ha, ha)
Surely he must know all the rules
(Ha, ha, ha)
Knowledge not meant for mortal fools
Must have been someone from above
Tell me, who wrote the book of love

*Solo (Chords Same As Chorus)

|--19p16-------19p16-------19p16-------19p16--------19--|
|--------19p16-------19p16-------19p16-------19p16------|
|-------------------------------------------------------|
|-------------------------------------------------------|
|-------------------------------------------------------|
|-------------------------------------------------------|
                                                      x2
[ Tab from: http://www.guitartabs.cc/tabs/f/fleetwood_mac/book_of_love_tab.html ]
--19v---19v----19b--19p16--19p16------------------------------------|
---------------------------------19---19b--19p16--19p16-------------|
--------------------------------------------------------17----------|
--------------------------------------------------------------------|
--------------------------------------------------------------------|
--------------------------------------------------------------------|


------19--------------19b-19p16--19p16-----19b--19p16--19p16--------|
--19b----19b-----19br------------------19--------------------19-19v-|
--------------------------------------------------------------------|
--------------------------------------------------------------------|
--------------0-----------------------------------------------------|
--------------------------------------------------------------------|


-----------19-----19-----19-----19---------------16-19---19p16------|
-19v---19b----19b----19b----19b-----19bv--19v-----------------------|
--------------------------------------------------------------------|
--------------------------------------------------------------------|
--------------------------------------------------------------------|
--------------------------------------------------------------------|


-------19p16-------19p16--------19br----19b--19b-----19br--19b---------|
-19----------19----------19--------------------------------------------|
-----------------------------------------------------------------------|
-----------------------------------------------------------------------|
-----------------------------------------------------------------------|
-----------------------------------------------------------------------|


-19p16--19p16--------x-------------------------------------------------|
--------------19----x---19br-p16--19p16----19b-------19b-19p16---------|
----------------------------------------18-----------------------------|
-----------------------------------------------------------------------|
-----------------------------------------------------------------------|
-----------------------------------------------------------------------|


-----------------------------------------------------------------------|
--19p16-----19p16----19p16----19v-----19b-19b--19v---------------------|
--------18--------18-------18-------------------------18-16h18---------|
-----------------------------------------------------------------------|
-----------------------------------------------------------------------|
-----------------------------------------------------------------------|
                                               *fade out

---------------19b--19p16-19p16-----19b--19br--------------------------|
--------------------------------19-------------------------------------|
--18--16v--------------------------------------------------------------|
-----------------------------------------------------------------------|
-----------------------------------------------------------------------|
-----------------------------------------------------------------------|
Comments