Flaw - Payback Chords & Tabs

 

Payback Chords & Tabs

Flaw Chords & Tabs

Version: 6 Type: Tab 0 ratings
1 star 2 stars 3 stars 4 stars 5 stars
comments

Payback Tab

   
-------------------------------------------------------------------------------
			     Flaw - Payback
-------------------------------------------------------------------------------

Tabbed by:  Tyler Eibl
Email: Kornography32@hotmail.com
 
Tuning: B F# B E G# C#

Intro:
|------------|-------|
|------------|-------|
|------------|-------|
|-12---------|---1---|
|-12---------|---1---|
|-12---------|---1---|

Repeat....Until..


|-----------------------------------------------|
|-----------------------------------------------|
|-----------------------------------------------|
|--0-0-0-0-x-0-0-0-0-0-x-0-0-0-0-x-0---0-6--5---|
|--0-0-0-0-x-0-0-0-0-0-x-0-0-0-0-x-0---0-6--5---|
|--0-0-0-0-x-0-0-0-0-0-x-0-0-0-0-x-0-x-0-6--5---| X4
   *                       *
(*)- Strike harder

Verse
|------------------------------------------------------------------|
|------------------------------------------------------------------|
|----7~-------------------------------------------7~---------------|
|----7~-------------------------------------------7~---------------|
|----5~-----------------------------------------5-5~---------------|
|-0-------------------------------------------0--------------------|
 "There's another reflection involved up in my mind..
[ Tab from: http://www.guitartabs.cc/tabs/f/flaw/payback_tab_ver_6.html ]
Chorus:
|---|---------------------------------------------|
|---|---------------------------------------------|
|---|---------------------------------------------|
|-1-|0-0-0-0-x-0-0-0-0-0-x-0-0-0-0-x-0---0-6--5---|
|-1-|0-0-0-0-x-0-0-0-0-0-x-0-0-0-0-x-0---0-6--5---|
|-1-|0-0-0-0-x-0-0-0-0-0-x-0-0-0-0-x-0-x-0-6--5---| 

Repeat Verse and chorus as it falls into order with the song..

Bridge
|-------------------------------|
|-------------------------------|
|-------------------------------|
|-------------------------------|
|---6-5---6-5---6-5---6-5-6-5---|
|-0-----0-----0-----0-----------| Repeat until Chorus part is played again

Bridge part II
|---------------------------------------------------------------------------
|---------------------------------------------------------------------------
|-----------7-7-7-7-7-7-7-----------5-5-5-5-5-5-5-5-----------7-7-7-7-7-7-7-
|-0-0-0-0-0-7-7-7-7-7-7-7-0-0-0-0-0-5-5-5-5-5-5-5-5-0-0-0-0-0-7-7-7-7-7-7-7-
|-0-0-0-0-0-5-5-5-5-5-5-5-0-0-0-0-0-3-3-3-3-3-3-3-3-0-0-0-0-0-5-5-5-5-5-5-5-
|-0-0-0-0-0---------------0-0-0-0-0-----------------0-0-0-0-0---------------

---------------------------------------------------------------------------|
---------------------------------------------------------------------------|
-10-10-10-10-10-10-10-10-10-10-10-10---------------------------------------|
/10-10-10-10-10-10-10-10-10-10-10-10---------------------------------------|
/-8--8--8--8--8--8--8--8--8--8--8--8---------------------------------------|
/--------------------------------------------------------------------------|
The very end is basically a series of harmonics that i havent found..

| /  slide up
| \  slide down
| h  hammer-on
| p  pull-off
| ~  vibrato
| +  harmonic
| x  Mute note

===============================================================================
Comments