Flaw - Payback Chords & Tabs

 

Payback Chords & Tabs

Flaw Chords & Tabs

Version: 2 Type: Tab 0 ratings
1 star 2 stars 3 stars 4 stars 5 stars
comments

Payback Tab

Artist - FLaw
Song- Payback
Tabbed by - JDawg - John Schwind


Intro W/drums - Do this after Bass run has played twice   

E-------------------------------|
B-------------------------------|
G-4444444444444444444444444444--|
D-4444444444444444444444444444--|
A-2222222222222222222222222222--|
E-------------------------------|

Part of Intro I guess/ Repeat Heavy Distortion here! may I suggest a Boss MT-2?  
E---------------------------|-----------------------|
B---------------------------|-----------------------|
G--4----4--4--4-4---4---4-4-|--4-4----4-4-----------|
D--4----4--4--4-4---4---4-4-|--4-4----4-4---3---2---|
A--2----2--2--2-2---2---2-2-|--2-2----2-2---3---2---|
E--2----2--2--2-2---2---2-2-|--2-2----2-2---1---0---|

Verse the part with words...
E-----------------------|
B-----------------------|
G-----------------------|
D----4--5------4--5--4--|
A--2---------2----------|
E-----------------------|
[ Tab from: http://www.guitartabs.cc/tabs/f/flaw/payback_tab_ver_2.html ]
Before the so called solo...
A few times..       Then..
E--------------------|------|
B--------------------|------|
G--------------------|-5-5--|
D------------------2-|-5-5--|
A--3p2---3p2---3p2---|-3-3--|
E----0-----0-----0---|-3-3--|

Final time before the solo! 
E---------------------------|-----------------------|
B---------------------------|-----------------------|
G--4----4--4--4-4---4---4-4-|--4-4----4-4-----------|
D--4----4--4--4-4---4---4-4-|--4-4----4-4---3---2---|
A--2----2--2--2-2---2---2-2-|--2-2----2-2---3---2---|
E--2----2--2--2-2---2---2-2-|--2-2----2-2---1---0---|

Heres the solo!!!
E---------------------------|-----------------------|
B---------------------------|-----------------------|
G--4----4--4--4-4---4---4-4-|--4-4----4-4-----------|
D--4----4--4--4-4---4---4-4-|--4-4----4-4---3---2---|
A--2----2--2--2-2---2---2-2-|--2-2----2-2---3---2---|
E--2----2--2--2-2---2---2-2-|--2-2----2-2---1---0---|


Thats it.. I could be wrong in a few places, but oh well
this is the way I play it. Listen to the song for timing i guess.
I would suggest this song for anger managment. 

J_Dawg750@hotmail.com
I got msn messenger...
Comments