Flaw - One More Time Chords & Tabs

 

One More Time Chords & Tabs

Flaw Chords & Tabs

Version: 1 Type: Tab 1 rating
1 star 2 stars 3 stars 4 stars 5 stars
comments

One More Time Tab

Flaw
One More Time
riff 1:
B |-------------------------------|
G |-------------------------------|
D |-------------------------------|
A |-------------------------------|
E |-4-----------------------------|
B |-2-----------------------------|
[ Tab from: http://www.guitartabs.cc/tabs/f/flaw/one_more_time_tab.html ]
riff 2
guitar 1:  (strum each note with the volume turned down and then roll it up)
|------------------------------------------------------------------------|
|------------------------------------------------------------------------|
|-11~---------------9~---------------11~----------------7~---------------|
|------------------------------------------------------------------------|
|------------------------------------------------------------------------|
|------------------------------------------------------------------------|

guitar 2
part 1:
B |-----------------|
G |-----------------|
D |-----------------|
A |-----------------|
E |-4--4--4---------|
B |-2--2--2---------|
    p  p  p

part 2:
B |-------------|
G |-------------|
D |-------------|
A |-------------|
E |-4--4---2----|
B |-2--2---0----|

riff 3:
B |---------------------------------------|
G |---------------------------------------|
D |---------------------------------------|
A |---------------------------------------|
E |-4----4--5--4--2--4--2----4--5--4--2---|
B |-2-------------------------------------|
Comments