Flaw - Amendment Chords & Tabs

 

Amendment Chords & Tabs

Flaw Chords & Tabs

Version: 1 Type: Tab 0 ratings
1 star 2 stars 3 stars 4 stars 5 stars
comments

Amendment Tab

Flaw
Amendment
intro:
B |------3--3--2--3--2------3--3--2--3--2-------3--3--2--3--2-------3--3--2--3--2--|
G |--------------------------------------------------------------------------------|
D |-4-------------------4------------------2-------------------2-------------------|
A |--------------------------------------------------------------------------------|
E |--------------------------------------------------------------------------------|
B |--------------------------------------------------------------------------------|

riff 1:
B |--------------------------------------------------------|
G |--------------------------------------------------------|
D |--------------------------------------------------------|
A |------4/3-------------------------4/3-------------------|
E |-5/4--2/1--4/3--------3/4--x-5/4--2/1--4/3--------4-4---|
B |-3/2-------2/1--0-0-0-1/2--x-3/2-------2/1--0-0-0-2-2---|
                   p p p                       p p p

riff 2:
B |-----------------------------------------|
G |-----------------------------------------|
D |-----------------------------------------|
A |-5--------------------3----------2-------|
E |-5--------------------3----------2-------|
B |-3--------------------1----------0-------|

riff 3
part 1:
B |-----------------------------------------|
G |-----------------------------------------|
D |-----------------------------------------|
A |-7---------------------------------------|
E |-7---------------------------------------|
B |-5---------------------------------------|

part 2:
B |-11/23~------------24----20~------------23-24-23~------------24--20~------------|
G |--------------------------------------------------------------------------------|
D |--------------------------------------------------------------------------------|
A |--------------------------------------------------------------------------------|
E |--------------------------------------------------------------------------------|
B |--------------------------------------------------------------------------------|
[ Tab from: http://www.guitartabs.cc/tabs/f/flaw/amendment_tab.html ]
B |-23--24--23~-----------18----20~-----------23-24-23~-----------24--20~-----------|
G |---------------------------------------------------------------------------------|
D |---------------------------------------------------------------------------------|
A |---------------------------------------------------------------------------------|
E |---------------------------------------------------------------------------------|
B |---------------------------------------------------------------------------------|

riff 4
guitar 1
part 1:
B |---------------------------------------------------------------------------------|
G |---------------------------------------------------------------------------------|
D |---2-------4-----------------------------2-----xx-2--4---------------------------|
A |-x-2-------4--3-------4/3--4/3--3--------2-----xx-2--4--1-------4/5--4/5--5------|
E |-x-0-------2--3-------4/3--4/3--3--------0-----xx-0--2--1-------4/5--4/5--5------|
B |-x------------1-------2/1--2/1--1-----------------------3-------2/3--2/3--3------|







part 2:
B |----------------------------------|
G |----------------------------------|
D |---2--------4---------------------|
A |---2--------4--3--------4/3--4/3--|
E |---0--------2--3--------4/3--4/3--|
B |---------------1--------2/1--2/1--|

guitar 2
part 1:
B |-------------------------------------------------------------------------|
G |--------5~--------5~--------3~---4~---3~--------5~---6~---5~--------3~---|
D |---2~--------2~--------1~------------------2~------------------1~--------|
A |-------------------------------------------------------------------------|
E |-------------------------------------------------------------------------|
B |-------------------------------------------------------------------------|

outro
part 1:
B |---------------------------------------------------|
G |---------------------------------------------------|
D |---------------------------------------------------|
A |-------4/3-----------------------------------------|
E |-5/4---2/1--4/3-x-4--4----4--4---------------------|
B |-3/2--------2/1-x-2--2----2--2---------------------|
Comments