Flaming Spounge - Freak Show Chords & Tabs

 

Freak Show Chords & Tabs

Flaming Spounge Chords & Tabs

Version: 1 Type: Tab

Freak Show Tab

   
Freak Show
Written By: Jay Frost
Played By: FLAMING SPOUNGE

E:2-2-X-----X-2-2-X-------X
B:3-3-X-2-2-X-3-3-X-2-2-2-X
G:----X-3-3-X-----X-3-3-3-X

E:2-2-X-----X-2-2-X-------X
B:3-3-X-2-2-X-3-3-X-2-2-2-X
G:----X-3-3-X-----X-3-3-3-X

E:2-2-X-----X-2-2-X-------X
B:3-3-X-2-2-X-3-3-X-2-2-2-X
G:----X-3-3-X-----X-3-3-3-X

E:2-2-X-----X-2-2-X-------X
B:3-3-X-2-2-X-3-3-X-2-2-2-X
G:----X-3-3-X-----X-3-3-3-X

E:2-2-X-----X-2-2-X-------X
B:3-3-X-2-2-X-3-3-X-2-2-2-X
G:----X-3-3-X-----X-3-3-3-X
[ Tab from: http://www.guitartabs.cc/tabs/f/flaming_spounge/freak_show_tab.html ]
E:2-2-X-----X-2-2-X-------X
B:3-3-X-2-2-X-3-3-X-2-2-2-X
G:----X-3-3-X-----X-3-3-3-X

E:2-2-X-----X-2-2-X-------X
B:3-3-X-2-2-X-3-3-X-2-2-2-X
G:----X-3-3-X-----X-3-3-3-X

E:2-2-X-----X-2-2-X-------X
B:3-3-X-2-2-X-3-3-X-2-2-2-X
G:----X-3-3-X-----X-3-3-3-X

E:2-2-X-----X-2-2-X-------X
B:3-3-X-2-2-X-3-3-X-2-2-2-X
G:----X-3-3-X-----X-3-3-3-X

E:2-2-X-----X-2-2-X-------X
B:3-3-X-2-2-X-3-3-X-2-2-2-X
G:----X-3-3-X-----X-3-3-3-X

E:2-2-X-----X-2-2-X-------X
B:3-3-X-2-2-X-3-3-X-2-2-2-X
G:----X-3-3-X-----X-3-3-3-X