Flaming Lips - Turn It On Chords & Tabs

 

Turn It On Chords & Tabs

Flaming Lips Chords & Tabs

Version: 1 Type: Bass Tab 0 ratings
1 star 2 stars 3 stars 4 stars 5 stars
comments

Turn It On Bass Tab

Turn it on 
The Flaming Lips
By Nick Key

Verse
----------------------------------
----------------------------------
-5---5---3-5-3-5------------------
---5---5----------5-0-5-0-3-5-3-5-

----------------------------------
----------------------------------
------------------5---5---3-5-3-5-
-3-0-3-0-1-3-1-3----5---5---------

[ Tab from: http://www.guitartabs.cc/tabs/f/flaming_lips/turn_it_on_btab.html ]
Chorus 3x
----------------------------------
----------------------------------
------------------5---5---3-5-3-5-
-3-0-3-0-1-3-1-3----5---5---------

Then
Let this A ring
A---0---|

Repeat these many times, then, weird outro:
It doesn't really matter because of the wailing 
guitar, so just groove with the drums, like:

----------------------
----------------------
-7-----7-----5-7-5-7--
---7-7---7-7----------

--------------------------
--------------------------
-----------5h7-77-5h7-77--
-0-00-0-00----------------

Comments