Flaming Lips - Oh My Pregnant Head Chords & Tabs

 

Oh My Pregnant Head Chords & Tabs

Flaming Lips Chords & Tabs

Version: 1 Type: Bass Tab 0 ratings
1 star 2 stars 3 stars 4 stars 5 stars
comments

Oh My Pregnant Head Bass Tab

Oh My Pregnant Head
Flaming Lips 
Nick Key

Intro - Play a G (fifth fret D string and use some vibrato)

Verse
(Bend the F#'s just a little)
-------------------------------------------------4--
-4-5-5-4-5-5-4-5-5-7-5-5---4-5-5-4-5-5-4-5-5-4------
----------------------------------------------------
----------------------------------------------------

----------------------------------------------------
-4-5-5-4-5-5-4-5-5-4-5-7--4-5-5-4-5-5-4-5-5-4-5-7-5-
----------------------------------------------------
----------------------------------------------------
[ Tab from: http://www.guitartabs.cc/tabs/f/flaming_lips/oh_my_pregnant_head_btab.html ]
---------------------------------------------------
-4-5-5-4-5-5-4-5-5-4-5-7--4-5-5-4-5-5-4-5-5-4-5----
---------------------------------------------------
------------------------------------------------0--

Chorus - Repeat
-----------
-7--5-4-5--
-----------
-----------

Then:
---------------------------
-7p5h7p5h7p5--7p5h7p5h7p5--
---------------------------
---------------------------

Verse:
5x
--------------------------
-4-5-5-4-5-5-4-5-5-4-5-7--
--------------------------
--------------------------

-------------------------
-4-5-5-4-5-5-4-5-5-4-5-0-
-------------------------
-------------------------

Chorus
At end of chorus, play:
-----------
-5--4-5-7--
-----------
-----------

Verse (until end):
--------------------------
-4-5-5-4-5-7-4-5-5-4-5-7--
--------------------------
--------------------------

Comments