Flaming Lips - Fight Test Chords & Tabs

 

Fight Test Chords & Tabs

Flaming Lips Chords & Tabs

Version: 1 Type: Bass Tab 0 ratings
1 star 2 stars 3 stars 4 stars 5 stars
comments

Fight Test Bass Tab

Tabbed By : The Hawley Road Curse
e-mail: jburne8@yahoo.com

Tuning:EADG
The verses are played very quitley, in the chorus you just play along with the synth.

Intro x1
G|-------------------------------------------------------|
D|----------------------------------------2-222-2--------|
A|----------------2/4-40~--2/4-42~--2/4-4----------------|
E|-5--54--42--20-----------------------------------------|

verse x1
G|------------------------------------------------------------------|
D|------------------------------------------------------------------|
A|------------------------------------------------------------------|
E|-5-54-42-20--05-54-47-777-77--5-54-42-20-05-52-2-22-2-4-44-4------|

Chorus x1
G|-----------------------------------------------------|
D|----------------------------------------2~-----------|
A|----------------2/4-40~--2/4-42~---------------------|
E|-5--54--42--20---------------------------------------|

verse x1
G|-----------------------------------------------------------------------|
D|-----------------------------------------------------------------------|
A|-------------------77-55-44-22-00----------------------77-55-44-22-00--|
E|-5-54-42-20--5-54-4--------------5-54-42-20-5-52-2-22-2----------------|

Chorus x1
G|--------------------------------------------------------------------------|
D|---------------------------------------------------------------2-222-22---|
A|------------2/4-40~-2/4-42~-2-------------2/4-40~-2/4-42~2-2/4-4----------|
E|-5-54-42-20------------------5-54-42-20-----------------------------------|
[ Tab from: http://www.guitartabs.cc/tabs/f/flaming_lips/fight_test_btab.html ]
verse x1
G|-----------------------------------------------------------------------|
D|-----------------------------------------------------------------------|
A|-------------------77-55-44-22-00----------------------77-55-44-22-00--|
E|-5-54-42-20--5-54-4--------------5-54-42-20-5-52-2-22-2----------------|

Chorus x1
G|--------------------------------------------------------------------------|
D|-----------------------------------------------------------------2-222-22-|
A|------------2/4-40~-2/4-42~-222-------------2/4-40-2/4-42~2-2/4-4---------|
E|-5-54-42-20----------------------5-54-42-20-------------------------------|

Interlude x1
G|--------------------------------------------------------------------------|
D|--------------------------------------------------------------------------|
A|--------------------------------------------------------------------------|
E|-0-4/5--9-5--7-7/9--12-7--0-4/5--9--5--97--97--9-7-9-7-9-7-9-7------------|

Chorus x1
G|----------------------------------------------------------------|
D|----------------------------------------------------------2-----|
A|------------2/4-40~-2/4-42~-222-------------2/4-40-2/4-42-------|
E|-5-54-42-20----------------------5-54-42-20---------------------|

G|--------------------------------------------------------------------------|
D[-------------------------2~--------------------------2~--3/5-59~----------|
A|-------------2/4-40-2/4-4---------------2/4-40~-2/4-4---------------------|
E[--5-54-42-20------------------5-54-42-20----------------------------------|


End on G

if you have any questions or corrections feel free to email me
Comments