Flaming Lips - Chewin The Apple Of Your Eye Chords & Tabs

 

Chewin The Apple Of Your Eye Chords & Tabs

Flaming Lips Chords & Tabs

Version: 1 Type: Bass Tab 0 ratings
1 star 2 stars 3 stars 4 stars 5 stars
comments

Chewin The Apple Of Your Eye Bass Tab

Chewin' the Apple of Your Eye
Flaming Lips 
Nick Key

Verse (I can't tell if it's a bass or a 
second guitar playing bass notes.

----------
-7-6------
-----9-7--
----------

On last time, play an a before the pause

Chorus
-7--7-7--7--7-7--7--7-7--7--7-7--
---------------------------------
---------------------------------
---------------------------------

--6--6-6--6--6-6--4--4-4--4--4-4-
---------------------------------
---------------------------------
---------------------------------
[ Tab from: http://www.guitartabs.cc/tabs/f/flaming_lips/chewin_the_apple_of_your_eye_btab.html ]
Post Chorus (2x)
---6-7----
-7-----9--
----------
----------

Next verse you can play two ways
---6-7-----/18-16-14---------
-7-----9-------------16-14---
-----------------------------
-----------------------------

Or:
-14-18-19-16--/18-16-14---------
------------------------16-14---
--------------------------------
--------------------------------

Chorus again, then this variation.
---6--/18-16-14---------
-7--------------16-14---
------------------------
------------------------

During outro, play second verse.

Comments