Fixxxer - Welcome Chords & Tabs

 

Welcome Chords & Tabs

Fixxxer Chords & Tabs

Version: 1 Type: Tab 0 ratings
1 star 2 stars 3 stars 4 stars 5 stars
comments

Welcome Tab

   
Fixxxer, "Welcome".
Tabbed by Pete,  EX250FIxxxER@aol.com.
  
-------------------------------------------------------------------------------                
                  "WELCOME" - FIxxxER
-------------------------------------------------------------------------------

By: Pete, Mike, Chris, and Jaymz

The intro to the song is when Mike sings "Welcome to Hellllllllllllllll..............(a few deep breathes).........GO"

Bass riff through the entire verse is as follows...

G|---------------------------------------------------------------------------------------------------------|
D|---------------------------------------------------------------------------------------------------------|
A|---------------------------------------------------0--0--0--0-----3--3--3--3--2--2--2------------|
E|---0--0--0--0--0------3--3--3--3--3--3-----------------------------------------------------------|

[ Tab from: http://www.guitartabs.cc/tabs/f/fixxxer/welcome_tab.html ]
Then Guitar kicks in with a crap load of distortion
(Verse)
      E                             G                   A                C                B
e|---------------------------------------------------------------------------------------------------------|
B|---------------------------------------------------------------------------------------------------------|
G|---------------------------------------------------------------------------------------------------------|
D|---------------------------------------------------------------------------------------------------------|
A|--2--2--2--2--2--------5--5--5--5--5--5------7--7--7--7----10-10-10-10-----9--9--9----|
E|--0--0--0--0--0--------3--3--3--3--3--3------5--5--5--5-----8---8---8---8-----7--7--7----|
  l- - - - - - - - - - - - - - - - - - - - - -  4x  - - - - - - - - - - - - - - - - - - - - - - - - -l

(Chorus)
       E           B           A#        E#
e|---------------------------------------------------------------------------------------------------------|
B|---------------------------------------------------------------------------------------------------------|
G|---------------------------------------------------------------------------------------------------------|
D|---2--2--2------9--9------8--8--8----3--3--------------------------------------------------------------------------|
A|---2--2--2------9--9------8--8--8----3--3-------------------------------------------------------------------------|
E|---0--0--0------7--7------6--6--6----1--1--------------------------------------------------------------------------|
   l- - - - - - - - -  2x  - - - - - - - - - - -l

Sorry guys, but no solo YET for this song, but i don't have enough time to put it in so mabye later...


Intro
Verse 1
Verse 2
Chorus
Verse 3
Solo
Chorus
Intro


Thanks for lookin at this sweet song.......if you gots any q's, just e-mail me at EX250FIxxxER@aol.com
|===============================================================================
 
:: Ultimate Guitar Archive :: 
http://www.ultimate-guitar.com 

Comments