Fixture - Unhinged Chords & Tabs

 

Unhinged Chords & Tabs

Fixture Chords & Tabs

Version: 1 Type: Bass Tab 0 ratings
1 star 2 stars 3 stars 4 stars 5 stars
comments

Unhinged Bass Tab

   
Here's the song unhinged from the unhinged album. A very good song.
Subject: Bass tab 
Song: Unhinged
Group: Fixture
Album: Unhinged
Tabbed by Erik Horton

Riff 1

G|------------------------------------||
D|------------------------------------*|
A|------------------------------------*|
E|-0-0-0-0/6-6-6-6\3-3-3-3-2-2-1-1----||

Riff 2

G|--------------||
D|---2----------*|
A|--------------*|
E|-0-----3-2----||

Riff 3

G|--------------------------||
D|-------2------------------*|
A|--------------------------*|
E|-0-0-0---0-0-0-0-0-3-2----||

Riff 4

G|------------------------------------||
D|------------------------------------*|
A|------------------------------------*|
E|-0-0----0/6-6---6\3-3---3-2----1----||

Riff 5

G|-----------------------------------------------------------|
D|-----------------------------------------------------------|
A|-----------------------------------------------------------|
E|-0-0-0-0-0-0-0-0-0-0-0-0-0-0/6-6-6-6-6-6-6-6-6-6-6-6-6-6\3-|


G|--------------------------------------|
D|--------------------------------------|
A|--------------------------------------|
E|-3-3-3-3-3-3-3-3-3-3-3-3-3----2---1---|

Riff 6

G|-----|
D|-----|
A|-----|
E|-0---|

Riff 7
[ Tab from: http://www.guitartabs.cc/tabs/f/fixture/unhinged_btab.html ]
G|--------------------------------------------------|
D|--------------------------------------------------|
A|-2-2-2-2-2----------------------------------------|
E|-----------2-2-2-2-2-2-3-3-3-3-3-5-5-x-x-x-x-x-x--|

G|--------------------------------------------------|
D|--------------------------------------------------|
A|--------------------------------------------------|
E|-0-0-0-0-0-2-2-2-2-2-2-3-3-3-3-3-5-5-x-x-x-x-x-x--|

Riff 8

G|-----------------------------------------------------------------------||
D|-----------------------------------------------------------------------*|
A|-2-2-2-2-2-0-2-0-2-0-5-5-5-5-5-x-x-x-7-7-7-7-7-7-5-7-10-10-10-12-12-12-*|
E|-----------------------------------------------------------------------||

Riff 9(during acoustic riff)

G|-----------------||
D|-----------------*|
A|-0---------------*|
E|-----3---0---1---||

Riff 10(Bass solo)
				   x3
G|------------------------------------||
D|--------------------0---0---2-------*|
A|-----0---0-0h1p0--------------------*|
E|-0-3---3---------3----3---3---------||

				   x1
G|-------------------------------------|
D|-------------------------------------|
A|-----0----0--0h1p0----3-5-3----------|
E|-0-3----3----------3--------5-3------|

Riff 11
		x2
G|-----------------||
D|-----------------*|
A|---2--2h3p2---2--*|
E|-0----------0----||

		x2
G|----------------||
D|----------------*|
A|----------------*|
E|-2-3-2-3-2-3-2--||

Riff 12

G|-----||
D|-----*|
A|-2---*|
E|-----||




--

Comments