Fixture - Infanticide Chords & Tabs

 

Infanticide Chords & Tabs

Fixture Chords & Tabs

Version: 2 Type: Bass Tab 0 ratings
1 star 2 stars 3 stars 4 stars 5 stars
comments

Infanticide Bass Tab

The song infanticide by fixture off of unhinged
Subject: Bass tab 
Song: Infanticide
Group: Fixture
Album: Unhinged
Tabbed by Erik Horton

Riff 1
                                    x7
G|------------------------------------||
D|------------------------------------*|
A|-------------2h3--------------------*|
E|-0-0-0-2h3-0-----0-2h3-0-0-1--------||
                                    
				    x1
G|-------------------------------------|
D|-------------------------------------|
A|--------------1-0---0----------------|
E|-0-0-0-2h3-0------3---3-2-0----------|

Riff 2
		x3
G|----------------||
D|----------------*|
A|-1-0---0--------*|
E|-----3---3-2-0--||
		x1
G|-----------------|
D|-----------------|
A|-1-1-1-1---------|
E|---------0-------|

Riff 3
[ Tab from: http://www.guitartabs.cc/tabs/f/fixture/infanticide_btab_ver_2.html ]
G|------------------------------------||
D|------------------------------------*|
A|-----7---7---7---1-0---0------------*|
E|-0---0---0---0-------3---3-2-0------||

Riff 4
				x3
G|------------------------------------||
D|------------------------------------*|
A|---------1-0---0--------------------*|
E|-0-0-0-0-----3---3-2-0--------------||

	   x1
G|------------|
D|------------|
A|-1-1-1-1----|
E|---------0--|

Riff 5

G|---------||
D|---------*|
A|-----0---*|
E|-0-------||

Riff 6

G|------------------------------------------------------||
D|------------------------------------------------------*|
A|----------------------------------------1-1-1/4-4-4-4-*|
E|-0-0-0-0-0-0-1-1-1/4-4-4-4--0-0-0-0-0-0---------------||

Riff 7(during solo)

G|--------------------------------------------------4----||
D|-------------------------4----------------------4------*|
A|-----------------------4--------------1-1-1/4-4--------*|
E|-0-0-0-0-0-0-1-1-1/4-4----0-0-0-0-0-0----------------||

Riff 8(ending note)

G|-------|
D|-------|
A|-------|
E|-0-----|



--
Comments