Five Iron Frenzy - Where Is Micha Chords & Tabs

 

Where Is Micha Chords & Tabs

Five Iron Frenzy Chords & Tabs

Version: 1 Type: Bass Tab 0 ratings
1 star 2 stars 3 stars 4 stars 5 stars
comments

Where Is Micha Bass Tab

   
Where is Micha?
5 min walk records
words and music by Resse Roper & Dennis Culp
By Five Iron Frenzy 
Album: Our latest album yet.
Tab by Izzy(MxPx7777)

Order is: AA,BBBB,C,D,BB,C,D,E,AA,D,BB, end.
    1st time on (B) play the root, then pick it up at the "d".
(A)
G------------------------------------------------------------------------------------------------------------
D----------------------------------4--4------------------------------------4--7--(4)(1st time only)-                   
A------3-5--3--2--------3--5----------3----------3--0--0--4--7--5----------------------------------
E--3-------------------3---------------------0--3----------------------------------------------------------         

(B)
G----------------------------0-------------------------------------------------------------------------------
D---------------0---2-2--------2--------4--7--4--4--7--5----------------------------------------------
A------2--3---------------------------5---------------------------------------------------------------------
E--3---------------------------------------------------------------------------------------------------------

(C)
G-----------------------------------------------------------------------------------------------------                    
D---2-----2----2---2----2----2----2----2-------------------------------------------------------                      
A-3---3----3----3---3----3----3----3-------------5-5--------5-5--------5-5---------5-5---                            
E------------------------------------------------3-3--------3-3--------3-3---------3-3----------
[ Tab from: http://www.guitartabs.cc/tabs/f/five_iron_frenzy/where_is_micha_btab.html ]
G---------------------------------------------------------------------------------------------------                    
D---2-----2----2---2----2----2----2----2-------------------------------------------------------                     
A-3---3----3----3---3----3----3----3--------5---------------------------5--3--2--0--------
E---------------------------------------------------------------------------------------------------  

(D)
G------------------------------------------------------------------------------------------------------
D------------------------------------------------------------------------------------------------------
A----------------33333333--44444444--------------------------------------------------------                                        
E--33333333------------------------------11111111----------------------------------------
           
G-----------------------------------------------------------------------------------------------------
D-----------------------------------------------------------------------------------------------------
A----------------33333333--44444444--55555555---------------------------------------                                                     
E--33333333--------------------------------------------------------------------------------------                        

(E)
G-----------------------------------------------------------------------------------------------------------------------
D-----------------------------------22222222--00000000---------------------------                                       
A--3333--5555--2222-------------------------------------------------------------------------------          
E---------------------------3333------------------------------------------------------------------------ 

G----------------------------------------------------------------------------------------------------------
D-----------------------------------22222222--44444444-----------------------------------------                               
A--3333--5555--2222-------------------------------------------------------------------------------                              
E---------------------------3333------------------------------------------------------------------------
Comments