Five Iron Frenzy - Ugly Day Chords & Tabs

 

Ugly Day Chords & Tabs

Five Iron Frenzy Chords & Tabs

Version: 2 Type: Bass Tab 0 ratings
1 star 2 stars 3 stars 4 stars 5 stars
comments

Ugly Day Bass Tab

   
Band: Five Iron Frenzy
Song: Ugly Day
Album: All The Hype money Can Buy
Tabbed: ybbob182@hotmail.com

Intro:

G|----------------
D|--4-----2-------
A|-5-5-2-5--5-4-2-0
E|------3---------

Verses 1&2 :

G|-------------------------------------
D|-----5555-------------5555------------
A|-5555----5555-----5555-----2222-----777
E|-------------5555--------------5555---

G|-------------------------------
D|--------55555-------------------
A|-----555------222222------------
E|-5555----------------55555-333333

Chorus 1&2:

G|------------------------------------------
D|------------------------------------------
A|-55--------55----22----55-----------22-----
E|---5-33-55----555---333---5-33-55-33----5555

Bridge 1: ( when they keep yelling  whoa)
[ Tab from: http://www.guitartabs.cc/tabs/f/five_iron_frenzy/ugly_day_btab_ver_2.html ]
G|---------
D|---------
A|-----5555
E|-3333----

Verse 3:

G|------------------------------
D|------------------------------
A|--------------22---------444-22
E|-0000-555-0000----0000-555------

G|--------------------------------
D|--------------------------------
A|-----222---------4444-2222-------
E|-2222----0000-555----------5555555

Last Chorus:

G|-----------------------------------------
D|-----------------------------------------
A|---2--------222-44------2---------444-2222
E|-00-55-77-00-------55-00--55-77-555--------

Last Bridge:

G|---------
D|---------
A|---------
E|-5555-0000

Outro:

G|--1------------
D|-2----2-4-2-1---
A|---4-0-------4-2
E|----------------

	Listen to cd to get the way you hit the notes because its hard to put the rythym on the tab.

	corrections or comments: ybbob182@hotmail.com
Comments