Five Iron Frenzy - Superpowers Chords & Tabs

 

Superpowers Chords & Tabs

Five Iron Frenzy Chords & Tabs

Version: 1 Type: Bass Tab 0 ratings
1 star 2 stars 3 stars 4 stars 5 stars
comments

Superpowers Bass Tab

Superpowers
Five Iron Frenzy
[ Tab from: http://www.guitartabs.cc/tabs/f/five_iron_frenzy/superpowers_btab.html ]
G----------------------------------10---10--
D---11-11-11-13-------------9-9-9----11---11
A---------------10-10-10-13-------8---------
E-------------------------------------------
Play this over and over
this is the chorus
G------------------------------
D-----5-------3----------------
A---6---6---4---4---3---6-6-4-3
E-----------------4---4--------
play that twice
play this once
G--------------------------------------------------------------
D-----5-------3--------1------1------3--0------4---------------
A---6----6--4----4--3----3--2---2--1------4--4---4--6---4--6--6
E--------------------------------------------------------------
play this once
G-----------------------------------------------------------------------------------------------
D-----------------------------------------------------------------------------------------------
A----------8--8-------6--6---------8--8---------6--6---4--4----------6--6---------4--4------6--6
E---4--4---------6--6-------4--4---------6--6------------------4--4---------4--4-------6--6-----
this is the bridge


G-----------------------------------------------------------
D-----------------------------------------------------------
A---8--7--6--5--4--3--4--5--6--7--8--7--6--5--4--3--4------6
E-------------------------------------------------------6---
and finally the outro


G------------------------------------------------------
D-----------------3--3--6--6-----------------------5--5
A----------3--3-----------------------4--4--6--6-------
E---4--4-----------------------6--6--------------------
Comments