Five Iron Frenzy - Plan B Chords & Tabs

 

Plan B Chords & Tabs

Five Iron Frenzy Chords & Tabs

Version: 1 Type: Bass Tab

Plan B Bass Tab

Five Iron Frenzy - Plan B

Tabbed by Tom Ridgewell


G|-----------------------------------------------|
D|------------------------55---------------------|
A|----6-------555-66666------88-66-------66-88---|
E|-66----66666--------------------66-88-------88-|

G|-----------------|
D|-----------------| X2
A|-----6------66---|
E|--66----44-4-----|

I fell asleep..

G|---------------------------|
D|---------------------------| X2
A|--------------666-68888-88-|
E|-666-68888-88--------------|

Waking up...

G|------------------------------------------------|
D|-----------------------------------------333333-|
A|-5555--------6666-------5555--------3333--------|
E|------333333-----666666------333333-------------|

Giving Up..          Welcome to.. 

G|------------------------------------------------|
D|--------------------55-55--5--------------------|
A|----55-88-88--8---66--------5555------4444-8888-|
E|-66------------88---------------3333------------|

G|------------------------------------------------|
D|------------------------55----------------------|
A|----6-------555-66666------88-66-------66-88----|
E|-66----66666--------------------66-88-------88--|

I eat some...

G|---------------------------|
D|---------------------------| X2
A|--------------666-68888-88-|
E|-666-68888-88--------------|

I know how..

G|------------------------------------------------|
D|-----------------------------------------333333-|
A|-5555--------6666-------5555--------3333--------|
E|------333333-----666666------333333-------------|
[ Tab from: http://www.guitartabs.cc/tabs/f/five_iron_frenzy/plan_b_btab.html ]
Giving Up..          Welcome to.. 

G|------------------------------------------------|
D|--------------------55-55--5--------------------| X2
A|----55-88-88--8---66--------5555------4444-8888-|
E|-66------------88---------------3333------------|

Up to now..

G|-----------------------------|
D|-----55-8888----77-10-10-7---| X4
A|-66----------88-----------8--|
E|-----------------------------|

Don't you cry mama..

G|------------------------------------------------|
D|-----------------------------------------333333-|
A|-5555--------6666-------5555--------3333--------|
E|------333333-----666666------333333-------------|

Giving Up..                Welcome to.. 

G|------------------------------------------------|
D|------------------------------------------------| X2
A|----------------------5-------------------------|
E|-6---5----8-----6----------6-----4-----5--------|

Giving Up..          Welcome to.. 

G|------------------------------------------------|
D|--------------------55-55--5--------------------| X2
A|----55-88-88--8---66--------5555------4444-8888-|
E|-66------------88---------------3333------------|


G|-----------------------------------------------|
D|------------------------55---------------------|
A|----6-------555-66666------88-66-------66-88---|
E|-66----66666--------------------66-88-------88-|

G|-----------------|
D|-----------------| X3
A|-----6------66---|
E|--66----44-4-----|

G|-----------------|
D|-----------------|
A|-----6------66---|
E|--66----44-4---4-|



Any questions or comments, e-mail me at: skankmastersunited@hotmail.com

Thanks, Tom