Five Iron Frenzy - Handbook For The Sellout Chords & Tabs

 

Handbook For The Sellout Chords & Tabs

Five Iron Frenzy Chords & Tabs

Version: 3 Type: Bass Tab 0 ratings
1 star 2 stars 3 stars 4 stars 5 stars
comments

Handbook For The Sellout Bass Tab

   
-------------------------------------------------------------------------------
		 Handbook for the Sellout - Five Iron Frenzy
-------------------------------------------------------------------------------

Tabbed By : Jacob Bartlett
e-mail: acobjoe@subpatch.com

Album: Our Newest Album Ever!

Tuning: Standard EADG

Another awesome song by FIF, all the notes are correct, use your own judgment as
to how many times and to what rythm you play them. If you listen to the song 
while you play it'll be easy to figure out.

Intro (0:00)
G|-------------------------------|
D|-------------------------------|
A|-----4---44-4--------4---------|
E|-55-5--------1---22-2----44-40-|x2

G|---------------------------------|
D|---------------------------------|
A|---------4-4-4-4-----------------|
E|-5-5-5-5---------2-2-2-2-0-0-0-0-|x2

Verse (0:41)
G|-----------------------------------------|
D|---------------------------3-4-3-4-6-4-3-|
A|-------------------------4---------------|
E|-7-5-4-7-5-0h5-0-5-0h5-0-----------------|

G|-----------------------------|
D|-----------------------------|
A|---4-4---4-4-----------------|
E|-2--2--2--2--0-4-5-4-5-7-5-4-|

(0:51)
G|-----------------------------------|
D|-----------------------------------|
A|-----------------------------------|
E|-7777777777777777-0000000000000000-|x2

G|-------------------------------------------------------|
D|---------------4-4-4-4---------------------------------|
A|-4-4-4-4-4-4-4---------2-2-2-2-5-5-5-5-----------------|
E|---------------------------------------0-0-0-0-4-4-4-4-|

(1:08)
G|---------------------------------|
D|-------------------3-4-3-4-6-4-3-|
A|-----------------4---------------|
E|-5-0h5-0-5-0h5-0-----------------|

G|-----------------------------|
D|-----------------------------|
A|---4-4---4-4-----------------|
E|-2--2--2--2--0-4-5-4-5-7-5-4-|

G|---------------------------------|
D|-------------------3-4-3-4-6-4-3-|
A|-----------------4---------------|
E|-5-0h5-0-5-0h5-0-----------------|

G|-----------------------------|
D|-----------------------------|
A|---4-4---4-4-----------------|
E|-2--2--2--2--0-4-5-4-5-7-5-4-|

G|-----------------------------------|
D|-----------------------------------|
A|-----------------------------------|
E|-7777777777777777-0000000000000000-|x2
[ Tab from: http://www.guitartabs.cc/tabs/f/five_iron_frenzy/handbook_for_the_sellout_btab_ver_3.html ]
(1:33)
G|-------------------------------------------------------|
D|---------------4-4-4-4---------------------------------|
A|-4-4-4-4-4-4-4---------2-2-2-2-5-5-5-5-----------------|
E|---------------------------------------0-0-0-0-4-4-4-4-|

Chorus (1:41)
G|---------------------------------|
D|---------------------------------|
A|-0-0-0-0-5-5-5-5---------7-7-7-7-|
E|-----------------3-3-3-3---------|

G|---------------------------------|
D|---------------------------------|
A|-0-0-0-0-5-5-5-5-----------------|
E|-----------------3-3-3-3-0-0-0-0-|

G|---------------------------------|
D|---------------------------------|
A|-0-0-0-0-5-5-5-5---------7-7-7-7-|
E|-----------------3-3-3-3---------|

G|---------------------------------|
D|---------------------------------|
A|-0-0-0-0-5-5-5-5-7-7-7-7-7-7-7-7-|
E|---------------------------------|

(1:58)
G|-------------------------------|
D|-------------------------------|
A|-----4---44-4--------4---------|
E|-55-5--------1---22-2----44-40-|x2

Trombone Solo (2:15)
G|--------------------------|
D|-4444444/77777777---------|
A|-----------------77777777-|
E|--------------------------|x4

G|--------------------------|
D|--------------------------|
A|--------------------------|
E|-2222222/5555555500000000-|x4

(2:49)
G|-----------------------------------|
D|-----------------------------------|
A|-----------------------------------|
E|-7777777777777777-0000000000000000-|x2

G|-------------------------------------------------------|
D|---------------4-4-4-4---------------------------------|
A|-4-4-4-4-4-4-4---------2-2-2-2-5-5-5-5-----------------|
E|---------------------------------------0-0-0-0-4-4-4-4-|

Chorus (3:05)
G|---------------------------------|
D|---------------------------------|
A|-0-0-0-0-5-5-5-5---------7-7-7-7-|
E|-----------------3-3-3-3---------|

G|---------------------------------|
D|---------------------------------|
A|-0-0-0-0-5-5-5-5-----------------|
E|-----------------3-3-3-3-0-0-0-0-|

G|---------------------------------|
D|---------------------------------|
A|-0-0-0-0-5-5-5-5---------7-7-7-7-|
E|-----------------3-3-3-3---------|

G|-----------------------------------|
D|-----------------------------------|
A|-0-0-0-0-5-5-5-5-7-7-7-7-7-7-7-7-0-|<---Note the 0
E|-----------------------------------|

End on This
G|---|
D|---|
A|-6-|
E|---|
Comments