Five Iron Frenzy - Handbook For The Sellout Chords & Tabs

 

Handbook For The Sellout Chords & Tabs

Five Iron Frenzy Chords & Tabs

Version: 1 Type: Bass Tab 0 ratings
1 star 2 stars 3 stars 4 stars 5 stars
comments

Handbook For The Sellout Bass Tab

   
Handbook For the Sellout
5 min walk records
by Five iron frenzy
Album: Our latest album yet
Tab by Izzy (Mxpx7777@aol.com)
[ Tab from: http://www.guitartabs.cc/tabs/f/five_iron_frenzy/handbook_for_the_sellout_btab.html ]
order is: A,A,(B),B,C,D,B,B,C,D,E,A,A,F,F,F,F,C,D,E
              first "(B)" is tacet (don't play it!). Use the pick into the
second "B".
              End the song on the root.
  (A)
G--------------------------------------------------------------------------
D--------------------------------------------------------------------------
A-----------4-4-4-4-----------------------------4-4-4-4--------------------
E-5-5-5-5------------2-2-2-2--4-4-4-4--5-5-5-5-----------2-2-2-2--4-4-4-4--
  (B) 
G--------------------------------------------------------6--------6---------------------
D--------------------------------------4-6-4-6-4-----4-4---4--4-4---4----6-7-9-7-9-7-6--
A -(pickup)---------------------4-7---------------7-------------------7-----------------
E-(7-5-4-5)---5-5-0-5--5-5-0-5----------------------------------------------------------
  (C)
G--------------------------------------------
D--------------------------------------------
A--------------------------------------------
E ----7777777--00000000--77777777--00000000--
  (D)
G-----------------------4444----------------------
D----------------4444-----------------------6666--
A -44444444------------------55555555-7777--------
E-------------------------------------------------
  (E)
G-------------------------------------------------------------------------------
D-------------------------------------------------------------------------------
A----------5-5-5-5---------------------------5-5-5-5----------------------------
E-5-5-5-5----------2-2-2-2--0-0-0-0--5-5-5-5---------2-2-2-2--0-0-0-0---5-5-5-5-

G----------------------------------------------------------
D----------------------------------------------------------
A-5-5-5-5--------------------------5-5-5-5-----------------
E -------2-2-2-2--0-0-0-0--5-5-5-5---------7-7-7-7-7-7-7-7-
  (F)
G--------------------------------------------------------------------
D---------7-7-7-7----------------------------7-7-7-7-----------------
A-9-9-9-9----------7-7-7-7-7-7-7-7---9-9-9-9---------7-7-7-7-7-7-7-7-
E--------------------------------------------------------------------
Comments