Five Iron Frenzy - Farenheit Chords & Tabs

 

Farenheit Chords & Tabs

Five Iron Frenzy Chords & Tabs

Version: 2 Type: Bass Tab 0 ratings
1 star 2 stars 3 stars 4 stars 5 stars
comments

Farenheit Bass Tab

Song: Fahrenheit
Artist: Five iron frenzy
Tabbed by: Ryan willet
This is one of my favorite five iron songs
Key: >=play as many times as is on the cd r= let ring /e= slide down
the e string
intro:
G-------------------------------------------------------------
D-------------------------------------------------------------
A--------------------------------------------------------8-8--
E--/e--0r--4r--7r--9r--00--77--44--99--0r--4r--7r--9r--(1313)-
Verse:
G-------------------------------
D-------------------------------
A--0--2--4--2--0----------------
E-----------------44------------
PreChorus:
G----------------------
D----------------------
A--00--4r---22--7r-----
E----------------------
Chorus
G---------------------------------------------------
D---------------------------------------------------
A-0r-4r--7r-99-9r-7r-4r-00-2r-5r-7r-55-7r-4r-0------
E---------------------------------------------------
The bridge would take up a million sheets of paper its
switching between just playing even frets up and down on 
the a and d string
thats all thanx being honest about credit in tabs


[ Tab from: http://www.guitartabs.cc/tabs/f/five_iron_frenzy/farenheit_btab_ver_2.html ]
Comments