Five Iron Frenzy - Every New Day Chords & Tabs

 

Every New Day Chords & Tabs

Five Iron Frenzy Chords & Tabs

Version: 1 Type: Bass Tab 0 ratings
1 star 2 stars 3 stars 4 stars 5 stars
comments

Every New Day Bass Tab

"Every New Day"
 Five Iron Frenzy
 Our Newest Album Ever!
 Lyrics: Reese Roper
 Music: Scott Kerr & Dennis Culp
 (c) 1997 5 Minute Walk Music
 Tabbed by: Johnny Lloyd (StarFlyr99@aol.com)

 --Bass Intro, Verse, and Chorus--
G-|---------------------------------|
D-|---------------------------------|
A-|-4-4---4-----6-6-7-7---7---------|
E-|---------7-7-------------5-5-7-7-|
[ Tab from: http://www.guitartabs.cc/tabs/f/five_iron_frenzy/every_new_day_btab.html ]
 --Bass Part Right After 2nd Chorus--
G-|---------------------------------|
D-|---------------------------------|
A-|-------3--6--4---------4-7-6-4---|
E-|-4-------------5-----7---------7-|

 --Bass "Man vs. Himself--
G-|-----------------------------------------------------|
D-|------2-2----------2-2----------4-4----------4-4-----|
A-|-44-4---------44-4---------55-5---------55-5---------|
E-|----------4-4----------4-4----------5-5----------5-5-|

Bass "Healing Hands": Follows the guitar's power chords.

Comments