Five Iron Frenzy - Cool Enough For You Chords & Tabs

 

Cool Enough For You Chords & Tabs

Five Iron Frenzy Chords & Tabs

Version: 1 Type: Bass Tab 0 ratings
1 star 2 stars 3 stars 4 stars 5 stars
comments

Cool Enough For You Bass Tab

Cool Enough for You
Five Iron Frenzy
Upbeats & Beatdowns
Copyright 1996 Five Minute Walk Music
Tabbed by: David Kruger (davidspam@hotmail.com)
____________________________________________________________________

Intro:
G-----------------------------------------------|
D-----------------------------------------------|      
A-4----4--3-4------4----3-3-4-----4---3-4-------|
E--------5-----------5-5-------------5----------|

Intro2/Verse:
G--6-6-6-----6-------------------------------------------------------|
D--------6-6-------------6-6-9-----9-9-9----------6-6-6-6-4----------|
A------------------7-7-7-----------------6-6-9---------------7-------|
E--------------------------------------------------------------------|

G--6-6-6-----6-------------------------------------------------------|
D--------6-6-------7-7-7-----7-----6-6-6------6-----6-6-6-6-4--------|
A------------------------7-7--------------6-6------------------7-----|
E--------------------------------------------------------------------|

Sometimes in the "Intro2", you omit the last 6 notes and play: D-6--666
[ Tab from: http://www.guitartabs.cc/tabs/f/five_iron_frenzy/cool_enough_for_you_btab.html ]
Chorus:
G-----------------------------------------------------------------------|
D---------6-6-9----9-9-9-----------------8-8-11------11-14-------10-13--|
A--7-7-7-----------------6-6-9----9-9-9-----------12----------11--------|
E-----------------------------------------------------------------------|


Bridge: (Wait two measures before starting. First two are guitar only)
G---------------------|
D---------------------|
A--4-4---4------------|
E-----------4--5------|

Chorus2: (when distortion comes on)
G------------------------------------------------------9-----|
D--------------------------------------------6-9---6-9-------|
A---------------------------------------7--7-----7-----------|
E--7-77777----2-2222222----5-55555---------------------------|


Outro: (lalala)
G------------------------------------------------------9-----|
D--------------------------------------------6-9---6-9-------|
A--------------------------5555555------7--7-----7-----------|
E--77777777---22222222---------------------------------------|

End on E-7

*Note: These are the basic ryhthms. He plays some more advanced rhythms
based on these, you can figure them out by listening to the CD if you
want to play them.


And here's the order...

Intro     (2x)
Intro2    (2x)
Verse     (2x)
Chorus    (4x)
Intro2    (1x)
Verse     (2x)
Chorus    (4x)
Bridge    (14x)
Chorus2   (4x)
Outro     (4x)


Comments