Five Iron Frenzy - A Flowery Song Chords & Tabs

 

A Flowery Song Chords & Tabs

Five Iron Frenzy Chords & Tabs

Version: 1 Type: Bass Tab 0 ratings
1 star 2 stars 3 stars 4 stars 5 stars
comments

A Flowery Song Bass Tab

A Flowery Song
Five Iron Frenzy
Tabbed out by Ryan Pitman (also known as St. Rudy Princox)
Music: Scott (the rad guitarist) and Dennis (trombone)
Words: Reese (the psycho singer-dude)
Written by FIF
(c) 1996 5 Minute Walk Records/ASCAP


Intro pt.1/Verse:
|------------------------------
|---6--6-----------------------
|-7------7-6---6---4--4-6---9-6
|------------7---5--------7----

Intro pt.2/Chorus:
|----------------
|----------------
|-----4-4-----0-2
|-0-0-----2-2----

Bridge:
|---------------------------
|---------------------------
|---------------9-6---9-6---
|-5-5-5-5-5-5-7-----7-----7-
[ Tab from: http://www.guitartabs.cc/tabs/f/five_iron_frenzy/a_flowery_song_btab.html ]
That stylin part where everyone turns into birds and logs and stuff 
where there is a trombone solo:
|------------------
|------2-----------
|-2---------4----0-
|------------------

Well, that's it.  If anyone has the music(bass,guitar,horns) for "The 
Impression that I Get" by the Mighty Mighty Bosstones, please send it to 
me and I'll make you an official member of my ska band's (The Rude 
Oi!skatones) fan club (good deal).
Goto my pages at
http://members.tripod.com/~skaskaska/
   -my neat page
http://members.tripod/~skaskaska/Rev105.html
   -my neat Rev 105 page, which is a radio station in 
Minneskapolis/Skank Paul that was recently bought out by Disney, which 
sux, becuase there is now nothing good on the radio any more.

skaskaska@hotmail.com
  /\
 /  \
  || email me
really
i'm a cool guy
i freestyle walk and so should you
i also sk8
sXe
Comments