Five For Fighting - 100 Years Chords & Tabs

 

100 Years Chords & Tabs

Five For Fighting Chords & Tabs

Version: 6 Type: Tab

100 Years Tab

Intro:
||----3--3-----------------------3--3-------------------------------|
||-----------0--1--1--0--1--3-----------0--1--1--0--1--3--1--0------|
||------------------------------------------------------------------|
||------------------------------------------------------------------|
||------------------------------------------------------------------|
||------------------------------------------------------------------|


||----3--3---------------------0------------------------------------|
||-----------3--0--0--0--1--3-----0--0--0--0------------------------|
||--------------------------------------------2---------------------|
||------------------------------------------------------------------|
||------------------------------------------------------------------|
||------------------------------------------------------------------|
[ Tab from: http://www.guitartabs.cc/tabs/f/five_for_fighting/100_years_tab_ver_6.html ]