Five For Fighting - 100 Years Chords & Tabs

 

100 Years Chords & Tabs

Five For Fighting Chords & Tabs

Version: 4 Type: Tab 0 ratings
1 star 2 stars 3 stars 4 stars 5 stars
comments

100 Years Tab

e|-----------------------------------------------------------------------------|
A|-0--8-8--0-1--1-0-1-3--0--8-8--0-1--1-0-1-3-1-0--8-8--0--0-0-3-5-0-0-0-0-----|
G|-------------------------------------------------------------------------2---|
D|-----------------------------------------------------------------------------|
A|-----------------------------------------------------------------------------|
E|-----------------------------------------------------------------------------|
[ Tab from: http://www.guitartabs.cc/tabs/f/five_for_fighting/100_years_tab_ver_4.html ]
e|---------------------------------------------|
A|-12-10-10-10-12--8-8---12-10-10-10-12--8-8---|
G|---------------------------------------------| Twice
D|---------------------------------------------|
A|---------------------------------------------|
E|---------------------------------------------|

e|----------------------------------------------------------|
A|-7-8--10-7-7-8---7-8--10-7-7-8---0-0-3-5------------------|
G|------------------------------------------0--3--2--0--0---|
D|----------------------------------------------------------|
A|----------------------------------------------------------|
E|----------------------------------------------------------|
Comments