Five For Fighting - 100 Years Chords & Tabs

 

100 Years Chords & Tabs

Five For Fighting Chords & Tabs

Version: 3 Type: Tab 0 ratings
1 star 2 stars 3 stars 4 stars 5 stars
comments

100 Years Tab

Five For Fighting
100 Years
Transcribed by Soch H.
Tuning: EADGBE (Standard)

Intro:
||------15-15-------------------------------------------------|
||------------12-13----13-12-13-15----------------------------|
||-0-12-------------12----------------------------------------|
||------------------------------------------------------------|
||------------------------------------------------------------|
||------------------------------------------------------------|
[ Tab from: http://www.guitartabs.cc/tabs/f/five_for_fighting/100_years_tab_ver_3.html ]
||-------15-15-----------------------------15---15------------|
||-------------12-13----13-12-13-15-13-12-----------15-12-----|
||-12-12-------------12----------------------12-----12-12-----|
||------------------------------------------------------------|
||------------------------------------------------------------|
||------------------------------------------------------------|

||----------------------12-------------------------------------|
||-------12----12-13-15---------12--12--12--12----12-15--------|
||----12----12---------------12-----12--12--12-14-------11-12--|
||-14----------------------------------------------------------|
||-------------------------------------------------------------|
||-------------------------------------------------------------|
Comments