Five Finger Death Punch - Lift Me Up Chords & Tabs

 

Lift Me Up Chords & Tabs

Five Finger Death Punch Chords & Tabs

Version: 2 Type: Tab 0 ratings
1 star 2 stars 3 stars 4 stars 5 stars
comments

Lift Me Up Tab

   
Tabbed by: Connnor Ford

Band:   Five Finger Death Punch
Song:   Lift Me Up (Featuring Rob Halford)
Album:  The Wrong Side of Heaven and the Righteous Side of Hell (Vol 1)
Tuning: B Standard (B, E, A, D, F#, B)

Hereís Jason Hook teaching the song although he does change some parts in video from the 
original record:
http://www.youtube.com/watch?v=_3z0rC3IuG0


Please rate, comment, correct, anything that will help :)


Hammer on:        h
Pull off:         p
Slide up:         /
Slide down:       \
Bend up:          BU(?)
Vibrato:          ~~~
Pinch Harmonic:   PH

Guitar 1:        Jason Hook
Guitar 2:        Zoltan Bathory

___________________________________________________________________________


Intro
Both guitars
|-----------------------------------------------------------------|
|-----------------------------------------------------------------|
|-----------------------------------------------------------------|
|-----------------------------------------------------------------|
|-3-2-----------------------------3-2-----------------------------|
|-1-0-0-0-0-000-0-0-0-0-0-0-0-0-0-1-0-0-0-0-000-0-0-0-0-0-0-0-0-0-|

|-----------------------------------------------------------------|
|-----------------------------------------------------------------|
|-----------------------------------------------------------------|
|-----------------------------------------------------------------|
|-3-2-------------2---------------3-2-------------2---2-----------|
|-1-0-0-0-0-000-0-0-0-0-0-0-0-0-0-1-0-0-0-0-000-0-0-0-0-0-0-0-0-0-|

___________________________________________________________________________


Verse
Both guitars
|-----------------------------------------------------------------|
|-----------------------------------------------------------------|
|-----------------------------------------------------------------|
|---------------------------------------------------5~------------|
|-7-------------5-7-----8---5---8-7-----2-----------3~----7-6-5-4-|
|-0-0-0-0-000-0-----0-0---0---0-----0-0-0-0-0-0-0-0-----0-5-4-3-2-|

|-----------------------------------------------------------------|
|-----------------------------------------------------------------|
|-----------------------------------------------------------------|
|---------------------------------------------------5~------------|
|-2-------------5-7-----8---5---8-7-----2-----------3~----7-6-5-4-|
|-0-0-0-0-000-0-----0-0---0---0-----0-0-0-0-0-0-0-0-----0-5-4-3-2-|

___________________________________________________________________________



Pre-chorus
Both guitars
|-----------------------------------------------------------------|
|-----------------------------------------------------------------|
|-----------------------------------------------------------------|
|-----------------------------------------------------------------|
|-2---------------2---------------2---------------2---------------|
|-0-------0-2-3-5---5-3-2-0-0-0-0-0-------0-2-3-5---5-3-2-0-0-0-0-|

|-----------------------------------------------------------------|
|-----------------------------------------------------------------|
|-----------------------------------------------------------------|
|-----------------------------------------------------------------|
|-2---------------2---------------5-----------5-------------------|
|-0-------0-2-3-5---5-3-2-0-0-0-0-3---3-3-3-3-3---3-3-3-3-3-3-3-3-|

|-----------------------------------------------------------------|
|-----------------------------------------------------------------|
|-----------------------------------------------------------------|
|-----------------------------------------------------------------|
|-2---------------2---------------2---------------2---------------|
|-0-------0-2-3-5---5-3-2-0-0-0-0-0-------0-2-3-5---5-3-2-0-0-0-0-|

|-----------------------------------------------------------------|
|-----------------------------------------------------------------|
|-----------------------------------------------------------------|
|-------------------------------------7---7-------7-5-4-----------|
|-2---------------2---------------2---5---5-------------7-5-4-----|
|-0-------0-2-3-5---5-3-2-0-0-0-0-0---------------------------7-5-|

___________________________________________________________________________



Chorus
Both guitars
|--------------------------------------------------------------------|
|--------------------------------------------------------------------|
|--------------------------------------------------------------------|
|-------9-10---9-----9---9-10---9---------9-7--------7-----7-5---4-5-|
|-2-----7--7---7-----7---7--7---7---7-----------9-10-0-0-0-----0-----|
|-0-0-0------0---0-0---0------0---0-8-8-8-----8----------------------|
[ Tab from: http://www.guitartabs.cc/tabs/f/five_finger_death_punch/lift_me_up_tab_ver_2.html ]
|--------------------------------------------------------------------|
|--------------------------------------------------------------------|
|--------------------------------------------------------------------|
|-------9-10---9-----9---9-10---9---------9-7--------7-----7-5---4-5-|
|-2-----7--7---7-----7---7--7---7---7-----------9-10-5-5-5-----5-5-5-|
|-0-0-0------0---0-0---0------0---0-8-8-8-----8----------------------|

___________________________________________________________________________


Break
Both guitars
|-------------------------------------------------------------------|
|-------------------------------------------------------------------|
|-------------------------------------------------------------------|
|-------------------------------------------------------------------|
|-3-2-----------------------------3-2-------------------------------|
|-1-0-0-0-0-000-0-0-0-0-0-0-0-0-0-1-0-0-0-0-000-0-0-0-0-0-0-0-------|


___________________________________________________________________________


Repeat Verse

Repeat Pre-chorus

Repeat Chorus

___________________________________________________________________________


Breakdown
Both guitars
|-----------------------------------|-----------------------------------|
|-----------------------------------|-----------------------------------|
|-----------------------------------|-----------------------------------|
|-7/9----10\9---7-------------------|-7/9----10\9---7-------------------|
|-5/7-----8\7---5-----2-----2---3---|-5/7-----8\7---5---2-----2---------|
|-----00------0---0-0-0-0-0-0-0-1-0-|-----00------0---0-0-0-0-0-0-0-0-0-|

|------------------------------------|------------------------------------|
|------------------------------------|------------------------------------|
|------------------------------------|-------------------5-5-5-7-7-7-10\9-|
|-7/9----10\9-------7/9---10\9---7/9-|-7/9----10\9---7--------------------|
|-5/7-----8\7-------5/7----8\7---5/7-|-5/7-----8\7---5---3-3-3-5-5-5--8\7-|
|-----00------0-000-----0------0-----|-----00------0---0------------------|

___________________________________________________________________________



Solo (JH)
Solo rhythm played by guitar 2 (Chorus)
Guitar 1
|-12-15-19-15-12----15-12-------12----------------|
|----------------19-------19-15----19-15-12-15-19-|
|-------------------------------------------------|
|-------------------------------------------------|
|-------------------------------------------------|
|-------------------------------------------------|

|-12-15-19-15-12----15-12-------12----------------|
|----------------19-------19-15----19-15-12-15-19-|
|-------------------------------------------------|
|-------------------------------------------------|
|-------------------------------------------------|
|-------------------------------------------------|

|-12-15-19-15-12----15-12-------12----------15-14-|
|----------------19-------19-15----19-15-12-------|
|-------------------------------------------------|
|-------------------------------------------------|
|-------------------------------------------------|
|-------------------------------------------------|

|-12----------------------15BU(17)~~~~~~~~~~~~~~~-|
|----15----------12h17p12-------------------------|
|-------14BU(16)----------------------------------|
|-------------------------------------------------|
|-------------------------------------------------|
|-------------------------------------------------|

|-12-15-19-15-12----15-12-------12----------------|
|----------------19-------19-15----19-15-12-15-19-|
|-------------------------------------------------|
|-------------------------------------------------|
|-------------------------------------------------|
|-------------------------------------------------|

|-12-15-19-15-12----15-12-------12----------------|
|----------------19-------19-15----19-15-12-15-19-|
|-------------------------------------------------|
|-------------------------------------------------|
|-------------------------------------------------|
|-------------------------------------------------|


|-12-15----------15-17-19-19BU(20)~~~~-19p17-19~~~~-|
|-------15-17-19------------------------------------|
|---------------------------------------------------|
|---------------------------------------------------|
|---------------------------------------------------|
|---------------------------------------------------|

|----------19-20-22-22BU(24)~~~~~~~~~~~~-|
|-19-20-22-------------------------------|
|----------------------------------------|
|----------------------------------------|
|----------------------------------------|
|----------------------------------------|

___________________________________________________________________________


Repeat Chorus

___________________________________________________________________________


Outro
Both guitars
|---------|
|---------|
|---------|
|-2-------|
|-2-------|
|-0-------|

There is another guitar fading in the background playing
the chorus guitar melody on a higher octave.


Thatís all guys, please rate :)
Comments