Five Finger Death Punch - Bad Company Chords & Tabs

 

Five Finger Death Punch Chords & Tabs

Version: 1 Type: Tab 0 ratings
1 star 2 stars 3 stars 4 stars 5 stars
comments

Bad Company Tab

   
----------------------------------------------------------------------------
			     Bad Company (cover) - Five Finger Death Punch
----------------------------------------------------------------------------

Tabbed by: Greg
Email: unknownatticus18233@msn.com

Tuning: Drop B
               C#
               G#
               E
               B
               F#
               B

Intro

C#|-------------------------------------------------------------------------|
G#|----------------------6--------------6--------------6--------------------|
E|---------------------------7-------------7----------------7---------------|
B|--------------------7-------------7-------------7-------------------------|
F#|----0----3-----5--------------5------------5---------------------(0--3)---|
B|--------------------------------------------------------------------------|



             (Bm)                                                                     (A)
C#|-------------------------------------------------------------------------|
G#|--------------6----------------------------5-----------------------------|
E|---------7--------7-----7-------------5--------5-----5--------------------|
B|------7-----7--------7-------------5-----5--------5-----------------------|
F#|--5----------------------------3-----------------------------------------|
B|--------------------------------------------------------------------------|
   ... company..... always on the run...........



This is the little spanish sounding lick on the guitar
C#|------------------------5------------------------------------------------|
G#|--------------5h6p5-----------5h6----------------------------------------|
E|---------7------------7-----7---------------------------------------------|
B|------7-----7-------------------------------------------------------------|
F#|--5----------------------------------------------------------------------|
B|--------------------------------------------------------------------------|



      Just before the Chorus
C#|-------------------------------------------------------------------------|
G#|-------------------------------------------------------------------------|
E|-----5--5-------5--5------------------------------------------------------|
B|-----5--5-------5--5------------------------------------------------------|
F#|----3--3-------3--3------------------------------------------------------|
B|--------------------------------------------------------------------------|


      Chorus
C#|-------------------------------------------------------------------------|
G#|-------------------------------------------------------------------------|
E|----5-------------------------7------------7-------7----------------------|
B|----5----5----0------0-0-0-0--7---0-0-0-0--7--0-0--7----------------------|
F#|---3----5----0------0-0-0-0--5---0-0-0-0--5--0-0--5----------------------|
B|---------5----0------0-0-0-0------0-0-0-0-----0-0-------------------------|
    ...Bad company I can't deny...

C#|-------------------------------------------------------------------------|
G#|-------------------------------------------------------------------------|
E|---5----------------------------------------------------------------------|
B|---5---5---0------0-0---------0-0--------0-0--------0-0-------(7)----------|
F#|--3---5---0------0-0---7h8---0-0---5h7--0-0---3h5--0-0--2h3--(7)----------|
B|-------5---0------0-0---------0-0--------0-0--------0-0-------(5)----------|
  ...Bad company... till the day I day...



[ Tab from: http://www.guitartabs.cc/tabs/f/five_finger_death_punch/bad_company_tab.html ]
Back to the Intro
C#|-------------------------------------------------------------------------|
G#|----------------------6--------------6--------------6--------------------|
E|---------------------------7-------------7----------------7---------------|
B|--------------------7-------------7-------------7-------------------------|
F#|----0----3-----5--------------5------------5-----------------(--0-----3)--|
B|--------------------------------------------------------------------------|



             (Bm)                                                         (A)
C#|-------------------------------------------------------------------------|
G#|--------------6----------------------------5-----------------------------|
E|---------7--------7-----7-------------5--------5-----5--------------------|
B|------7-----7--------7-------------5-----5--------5-----------------------|
F#|--5----------------------------3-----------------------------------------|
B|--------------------------------------------------------------------------|



Chorus
C#|-------------------------------------------------------------------------|
G#|-------------------------------------------------------------------------|
E|----5-------------------------7------------7-------7----------------------|
B|----5----5----0------0-0-0-0--7---0-0-0-0--7--0-0--7----------------------|
F#|---3----5----0------0-0-0-0--5---0-0-0-0--5--0-0--5----------------------|
B|---------5----0------0-0-0-0------0-0-0-0-----0-0-------------------------|
    ...Bad company I can't deny....


C#|-------------------------------------------------------------------------|
G#|-------------------------------------------------------------------------|
E|---5----------------------------------------------------------------------|
B|---5---5---0------0-0---------0-0--------0-0--------0-0-------(7)----------|
F#|--3---5---0------0-0---7h8---0-0---5h7--0-0---3h5--0-0--2h3--(7)----------|
B|-------5---0------0-0---------0-0--------0-0--------0-0-------(5)----------|
    ...Bad company... till the day I day....



C#|-------------------------------------------------------------------------|
G#|-------------------------------------------------------------------------|
E|--------------------------------------------------------------------------|
B|---------0-0---------0-0--------0-0--------0-0----------------------------|
F#|--------0-0---7h8---0-0---5h7--0-0---3h5--0-0--2h3-----------------------|
B|---------0-0---------0-0--------0-0--------0-0----------------------------|
   .... till the day I day.......


Spoken words
(there are two guitar parts here one doing this and the other playing the top of 
the Bm and B major)


C#|-----5------------5-------------5---------3------------------------------|
G#|-----6------------6-------------6---------3------------------------------|
E|------7------------7-------------7---------5------------------------------|
B|------7--0---0-0---7------0-0----7--0-0----5---0-0------------------------|
F#|-----5--0---0-0---5------0-0----5--0-0----3---0-0------------------------|
B|---------0---0-0----------0-0-------0-0--------0-0------------------------|



Solo part Rhythm only..... still working on the solo

C#|-------------------------------------------------------------------------|
G#|-------------------------------------------------------------------------|
E|------------------7-------7-----------------------------------------------|
B|----8--------0-0--7--0-0--7---------------------------------(7)-----------|
F#|---8--------0-0--5--0-0--5---------------------------------(7)-----------|
B|----8--------0-0-----0-0------------------------------------(7)-----------|
                                                                                     end of solo

Back to chorus

This is a SICK cover of the Bad Company song. Hope you enjoy. Give me some feedback


| /  slide up
| \  slide down
| h  hammer-on
| p  pull-off
| ~  vibrato
| +  harmonic
| x  Mute note
===============================================================================
Comments