Five - When The Lights Go Out Chords & Tabs

 

When The Lights Go Out Chords & Tabs

Five Chords & Tabs

Version: 2 Type: Bass Tab 0 ratings
1 star 2 stars 3 stars 4 stars 5 stars
comments

When The Lights Go Out Bass Tab

FIVE - "When the Lights Go Out" - Bass Tab

Common Time(4/4)
Standard Tuning(EADG)

INTRO:
        (x7)
|-----------|-------------|-------------|-----------|
|*---------*|-------------|-------------|-----------|
|*-r-e-s-t-*|---------4-7-|-5-r-5-------|-3-r-3-----|
|-----------|-r-r-5-7-----|-------5-r-5-|-------3-5-|
   1 2 3 4    1 2 3 & 4 &   1 2 & 3 4 &   1 2 & 3 4

|---------------|---------|-------------|-----------|
|---------------|---------|-------------|-----------|
|---------------|---------|-5-r-5-------|-3-r-3-----|
|-6-r-6-6-r-3-3-|-5-3-1-0-|-------5-r-5-|-------3-5-|
  1 2 & 3 4 & a   1 2 3 4   1 2 & 3 4 &   1 2 & 3 4

|---------------|-------------|
|---------------|-.-.---------|
|---------------|-3-3-----4-7-|
|-6-r-6-6-r-6-6-|-----5-7-----|
  1 2 & 3 4 & a   1 2 3 & 4 &


PRE-VERSE:
|-----------|-----------|
|-----------|-----------|
|-5-r-5---3-|-5-r-5---3-|
|------5----|-------5---|
  1 2 & 3 4   1 2 & 3 4


VERSE:
|-----------|-----------|-------------|---------|
|-----------|-----------|-------------|---------|
|-5-r-r-r---|-3-r-3-----|-------------|---------|
|---------5-|-------3-5-|-6-r-6-6-r-3-|-5-3-1-0-|
  1 2 3 4 &   1 2 & 3 4   1 2 & 3 4 &   1 2 3 4

|-------------|-----------|---------------|-------------|
|-------------|-----------|---------------|-.-.---------|
|-5-r-5-------|-3-r-3-----|---------------|-3-3-----4-7-|
|-------5-r-5-|-------3-5-|-6-r-6-6-r-6-6-|-----5-7-----|
  1 2 & 3 4 &   1 2 & 3 4   1 2 & 3 4 & a   1 2 3 & 4 &
[ Tab from: http://www.guitartabs.cc/tabs/f/five/when_the_lights_go_out_btab_ver_2.html ]
PRE-CHORUS:
|-------------|-----------|-------------|-----------|
|-------------|-----.-----|-------------|-----------|
|-------------|-3---3-r-3-|-------.-----|-----------|
|-6-r-6-6-r-6-|-----------|-3---3-3-r-3-|-3-r-3-3-5-|
  1 2 & 3 4 &   1 2 3 4 &   1 2 & 3 4 &   1 2 & 3 4

|-------------|-------------|-------------|---------|
|-------------|-------------|-------------|-.-.-----|
|-------------|-3---3-3---3-|-5---5-5---3-|-5-5-r-r-|
|-6-r-6-6-r-6-|-------------|-------------|---------|
  1 2 & 3 4 &   1 2 & 3 4 &   1 2 & 3 4 &   1 2 3 4

CHORUS/END:
|--------------|-----------|---------------|---------|
|*-------------|-----------|---------------|---------|
|*-5-r-5-------|-3-r-3-----|---------------|---------|
|--------5-r-5-|-------3-5-|-6-r-6-6-r-3-3-|-5-3-1-0-|
   1 2 & 3 4 &   1 2 & 3 4   1 2 & 3 4 & a   1 2 3 4

|-------------|-----------|---------------|--------------|
|-------------|-----------|---------------|-.-.---------*|
|-5-r-5-------|-3-r-3-----|---------------|-3-3-----4-7-*|
|-------5-r-5-|-------3-5-|-6-r-6-6-r-6-6-|-----5-7------|
  1 2 & 3 4 &   1 2 & 3 4   1 2 & 3 4 & a   1 2 3 & 4 &

RAP:
|-------------|-----------|---------------|---------|
|-------------|-----------|---------------|---------|
|-5-r-5-------|-3-r-3-----|---------------|---------|
|-------5-r-5-|-------3-5-|-6-r-6-6-r-3-3-|-5-3-1-0-|
  1 2 & 3 4 &   1 2 & 3 4   1 2 & 3 4 & a   1 2 3 4

|-------------|-----------|-------------|---------|
|-------------|-----------|-------------|-.-------|
|-5-r-5-------|-3-r-3-----|-----------.-|-3-r-r-r-|
|-------5-r-5-|-------3-5-|-6-r-6-6-r-6-|---------|
  1 2 & 3 4 &   1 2 & 3 4   1 2 & 3 4 &   1 2 3 4

|---------|---------|-----------|-------------|
|-.---.---|-.---.---|-.-----.---|-------------|
|-5-r-4-r-|-3-r-2-r-|-1-r-1-1-r-|-3-------4-7-|
|---------|---------|-----------|-----5-7-----|
  1 2 3 4   1 2 3 4   1 2 & 3 4   1 2 3 & 4 &

By: Johari Taylor
E-mail: viking@powerup.com.au, or s369700@student.uq.edu.au
More Bass Tabs: http:/www.powerup.com.au/~viking/basstab.htm

Comments