Five - Keep On Movin Chords & Tabs

 

Keep On Movin Chords & Tabs

Five Chords & Tabs

Version: 1 Type: Tab 0 ratings
1 star 2 stars 3 stars 4 stars 5 stars
comments

Keep On Movin Tab

Five-Keep on Movin
Tabsmail-cifrastabs@zipmail.com.br
    Five-Keep on Movin


  
|--------------------------------|--------------------------------|
|2-------2---3---2---0-------0---|0-------------------------------|
|------------------------2-------|2-------------------------------|
|--------------------------------|----4-----------------------0---|
|----0---------------------------|--------------------------------|
|--------------------------------|--------------------------------|

 
|--------------------------------|--------------------------------|--------------------------------|--------------------------------|
|--------2---3---2---0-------0---|--------------------------------|------------0-------------------|0-----------0-----------0-------|
|------------------------2-------|----2---------------2-----------|2-----------2-------2---2-------|2-----------2-------2---2-------|
|----------------------------0---|------------4-------------------|--------2---2-----------2---2---|4---0-------4-----------4---0---|
|--------------------------------|--------------------------------|----0---0-------0---0---0---0---|2-------2-------2---2---2---2---|
|--------------------------------|--------------------------------|--------------------------------|--------------------------------|
[ Tab from: http://www.guitartabs.cc/tabs/f/five/keep_on_movin_tab.html ]
                                             
|--------------------------------|--------------------------------|--------------------------------|--------------------------------|
|0-----------0-----------0-------|------------0-------------------|--------------------------------|0-----------0-------0---0-------|
|2-----------0-------2---2-------|2-----------2-------2---2-------|2-----------2-------2---2-------|2-----------2-----------2-------|
|0---0-------0-----------0---0---|0---0---0---0---0---0---0---0---|2-----------2-------2---2-------|4-----------4-------4---4-------|
|--------------------------------|--------------------------------|0-------------------0-------0---|2-------------------2-------2---|
|3-------3------3---3----3---3---|--------------------------------|--------------------------------|--------------------------------|

 
|--------------------------------|--------------------------------|--------------------------------|--------------------------------|
|0-----------0-----------0-------|--------------------------------|--------------------------------|0-----------0-------0---0-------|
|0-----------2-------0---0-------|2-----------2-----------2-------|2-----------2-------2---2-------|2-----------2-----------2-------|
|0-----------0-------0---0-------|0-----------0-------0---0---0---|2-----------2-------2---2-------|4-----------4-------4---4-------|
|----------------0---------------|--------------------------------|0-------------------0-------0---|2-----------2-------2-------2---|
|3-------------------3-------3---|--------------------------------|--------------------------------|--------------------------------|


TabsMail...
http://tabsmail.8m.com
!Exclusive-TabsMail!

Comments