Fisting Jack - Nutislack Taste Good Chords & Tabs

 

Nutislack Taste Good Chords & Tabs

Fisting Jack Chords & Tabs

Version: 1 Type: Tab 0 ratings
1 star 2 stars 3 stars 4 stars 5 stars
comments

Nutislack Taste Good Tab

Nutislack Tastes Good
Fisting Jack
[ Tab from: http://www.guitartabs.cc/tabs/f/fisting_jack/nutislack_taste_good_tab.html ]
Verse
|--------------------------------------------------------------|
|--------------------------------------------------------------|
|---5----------------------------------------------------------|
|---5----------5------------7-------------------3--------------|
|---3----------5------------7-------------------3--------------|
|--------------3------------5-------------------1--------------|

Chorus
e-----------------|
B-----------------|
G-----5-----------|
D-----5-----------|
A-----3-----------|
E-----------------|

Comments