Fishbone - Party At Ground Zero Chords & Tabs

 

Party At Ground Zero Chords & Tabs

Fishbone Chords & Tabs

Version: 1 Type: Bass Tab 0 ratings
1 star 2 stars 3 stars 4 stars 5 stars
comments

Party At Ground Zero Bass Tab

Party At Ground Zero
by Fishbone
 
A total classic... I can't believe someone didn't get this one already.
 
 
These are the 3 main parts of the intro.  I left out a lot of the slides in
the second part.  You're smart:  listen!  :)
G|-----------------9---------------9--------------------------------|
D|*-------9--7------------9--7------------9--7---------------------*|
A|*----7-------10------7-------10------7-------10---8--7------7----*|
E|--------------------------------------------------------10--------|
 
G|---------------------------------------------------------------------|
D|*-------------------------------------------------------------------*|
A|*--------3-3-------3-3-------------------3-3-------3-3--------------*|
E|----5--5------5--5------5---3---3---5--5------5--5------5--3--3--0---|
 
  3x   
G|-------------------||-----------------|
D|*------3------3---*||-----------------|
A|*-----------------*||--7---5---7--7---|
E|---0------3--------||-----------------|
 
  3x  
G|-------------------||-----------------|-------|-----------|
D|*------3------3---*||-----------------|-whole-|-----------|
A|*-----------------*||--7---5----------|--rest-|-----------|
E|---0------3--------||----------4\-----|-------|----4\-----|
 
This is the main riff.  There is a lot of rhythmic variation but these are
the main notes
G|----------------------------|
D|*----------------------1---*|
A|*----------2---4---2-------*|
E|--4--2--1-------------------|
 
These are the "People appear, 'cause Fishbone is here to say..." parts
G|----------------------------------------|
D|----6--------------6---------------3----|
A|--6---6--3-------6---6---3-------6------|
E|------------4---------------4-----------|
 
G|-------------------------------------------------|
D|----5--------------5---------------2--2-3-2-3-2--|
A|--5---5--2-------5---5---2-------5---------------|
E|------------3---------------3--------------------|
 
G|---------------------------------------------------------|
D|----6--------------6---------------6----------------3----|
A|--6---6--3-------6---6---3-------6---6---3------6--------|
E|------------4---------------4---------------4------------|
 
G|-----------------------------------------------------------|
D|--4--4-4--4------------------------------------------------|
A|------------6---6--6-6--6-6--------------------------------|
E|----------------------------7---6-6--6--4--1--4--6--4--1---|
Use the 6th fret on your B-string for these--^-----------^ if you have one.
It makes the pattern much easier!
 
This is for the 'bone solo section.  The guitar solo uses the main riff.
Oh, this section is used for the Johnny's Going to War section
G|----------------------------------------------
D|-----3--6--3----------------------------------
A|---4-------------3--6--3----4-4-6-6-----3-4---
E|---------------4--------------------4-6-------
The end of this measure is wrong, but all you need is any walking fill.
 
G|----------------------------------------------
D|-----3--6--3----------------------------------
A|---4-------------3--6--3----4-4-6-6-6-4-3-----
E|---------------4--------------------------6---
 

 
 
 
Eric Somdahl
ICQ #67654004
eric@esscowebdesign.com
http://www.esscowebdesign.com


[ Tab from: http://www.guitartabs.cc/tabs/f/fishbone/party_at_ground_zero_btab.html ]
Comments