Fishbone - Deep Inside Chords & Tabs

 

Deep Inside Chords & Tabs

Fishbone Chords & Tabs

Version: 2 Type: Bass Tab 0 ratings
1 star 2 stars 3 stars 4 stars 5 stars
comments

Deep Inside Bass Tab

   
---------------------------------------------------------------------------
Fishbone: Deep Inside (from the album Truth and Soul)
Written by: A. Moore/J. Fisher, 1988
Tabbed by: Csaba Pusztai (chubba@gemini.ektf.hu) 03.19.98

(A) Verse
g|-------------------------------------------------------------------------|
d|3-3-3-------------3-3-3----------------------------------------1---3p1---|
a|------6-3-6-3-6-3-------6-3-6-3-6-3--1-1-1-1---------0-0-1-1-3---3-----3-|
e|---------------------------------------------1-1-1-1---------------------|

[ Tab from: http://www.guitartabs.cc/tabs/f/fishbone/deep_inside_btab_ver_2.html ]
(B) Bridge #1
g|------------------------------------------------------------------------->
d|------------------------------------------------------------------------->
a|1-1-1-1-1-(0)-1-(0)-1-(0)---------------------1-1-1-1-1-(0)-1-(0)-1-(0)-->
e|--------------------------1-1-1-1-1-1-1-1-1-1---------------------------->
              /   
 >--------5---12-|
 >--------5---12-|
 >3-3-3-3--(0)---|
 >---------------|


(C) Bridge #2

g|------------------------------------------------------------------------->
d|------------------------------------------------------------------------->
a|1-1-1-1-1-(0)-1-(0)-1-(0)---------------------1-1-1-1-1-(0)-1-(0)-1-(0)-->
e|--------------------------1-1-1-1-1-1-1-1-1-1---------------------------->
              
 >------------10-|
 >--------5---10-|
 >3-3-3-3--(0)---|
 >---------------|


(D) Chorus

g|--------------------------|
d|--------------1-0-1-0-----|
a|----------------------1---|
e|1-1-1-1-1-1-1-----------0-|


(E) Closing

g|--------------------|
d|----------1---3p1---|
a|--0-1-2-3---3-----3-|
e|1-------------------|


Song Structure: 2xA,B,2xA,2xC,8xD,E

Notation:

p=pulloff
/=slide


Comments