First Circle - Akoy Sayo Chords & Tabs

 

Akoy Sayo Chords & Tabs

First Circle Chords & Tabs

Version: 2 Type: Tab 0 ratings
1 star 2 stars 3 stars 4 stars 5 stars
comments

Akoy Sayo Tab

   
  this intro is totally accurate!
[ Tab from: http://www.guitartabs.cc/tabs/f/first_circle/akoy_sayo_tab_ver_2.html ]
                                Dm  
 |----------24---------5---------5---|
 |---2---2--35-----------7-------6---|
 |----------24-------6-----6-----7---|
 |-----2-----------7---------7---7---|
 |---0---0--24---5---------------5---|
 |-------------------------------5---|
        AM7                       Dm
 |------------24---------5---------5-|
 |---------2--35-----------7-------6-|
 |-------1----24-------6-----6-----7-|
 |-----2-------------7---------7---7-|
 |---0--------24---5---------------5-|
 |---------------------------------5-|

  enjoy!
Comments