Firehouse - You Are My Religion Chords & Tabs

 

You Are My Religion Chords & Tabs

Firehouse Chords & Tabs

Version: 1 Type: Tab 0 ratings
1 star 2 stars 3 stars 4 stars 5 stars
comments

You Are My Religion Tab

   
Firehouse,You Are My Religion.
 Tabbed by Subodh Pun, secret_wave1@hotmail.com.
  
Song: You are My Religion
Band: Firehouse
Album: Good Acoustica
Tabbed by: Subodh Pun    
                                        
I have not done this by listening to the song in the cassette player and then tabbing it. I have been playing the solo of this song for years since it's birth. So I don't have to listen to the solo again and again and tab it. I know it's an old song but since nobody has done it's tabulation I thought of doing so. It's a great song with a very good lyric in it and it's melody is just perfect (I find it that way). Enjoy!!
This song is dedicated to all the Firehouse listeners.

(I am not going to write all the chords of the song along with the tab.You can find the chords in different guitar tablature sites. But I will write the chords of it's chorus so that it will be easier for you to figure out the chords for the solo.) 

Intro: (2 times)

                                         Dsus4   D Dsus2 D
E---------3-3-------3-3---------3-3-----|-3------2--0----2----------
B---------0-0-------0-0---------0-0-----|-3------3--3----3----------
G----2/4------4-4/5-----5--4/5-------5--|-2------2--2----2----------
D---------------------------------------|-0------0--0----0----------
A---------------------------------------|-0------0--0----0----------
E---------------------------------------|---------------------------

The Chorus of the song goes like this...
G           Am7
Not just on sunny day
Cadd9      Dsus4   D Dsus2 
I love you everyday and
G         Am7
I fall to my knees 
Cadd9 Dsus4 D Dsus2     
Every night I pray since
G            Am7
You come and save me
Cadd9   Dsus4 D Dsus2
For all eternity
Em                 D                  Am7
Forgive me for the things that I have done
Em                 D              Am7
In the name of the father and the son
N/C
You are religion  

Solo:           
E-------------3--3------5p3----3--3----|--------8----------7--------|
B------------------0-------------------|------------0---------0-----|
G---2/4br------------4------4--------4-|----/9---------9---------9--|
D--------------------------------------|----------------------------|
A--------------------------------------|----------------------------|
E--------------------------------------|----------------------------|
[ Tab from: http://www.guitartabs.cc/tabs/f/firehouse/you_are_my_religion_tab.html ]
E--------------------------7---7-----|------8--------10---------|
B--10-------10-----------------------|---------8---------8------|
G-------9-------9--9---------------9-|--/9--------9---------9---|
D------------------------------------|--------------------------|
A------------------------------------|--------------------------|
E------------------------------------|--------------------------|

E---8-----------12-------10----|------8-------7----------8-------10---|
B------------------10----------|---------8------0---10------8---------|
G------9---/11--------11-------|--/9--------9-----9----9-------9------|
D------------------------------|--------------------------------------|
A------------------------------|--------------------------------------|
E------------------------------|--------------------------------------|

E-------12---------14----------15----|------14-----------12---------12|
B----------12----------12----------12|----------12-----------12-------|
G--/12---------12----------12--------|--12----------12----------12----|
D------------------------------------|--------------------------------|
A------------------------------------|--------------------------------|
E------------------------------------|--------------------------------|

E-------12---------14--------15---------|-14--------12-----------12---|
B--/13-----13---------13--------13------|----13---------12------------|
G-------------12---------12--------12---|-------12----------12--------|
D---------------------------------------|-----------------------------|
A---------------------------------------|-----------------------------|
E---------------------------------------|-----------------------------|

E-------12---------14---------15----|-----14--------12---------12------
B----------12---------13----------12|--------12--------12-------------|
G--/12---------12--------12---------|-12--------12--------12-------------------------------------------------------------------------|-----------------------------|
A-----------------------------------|-----------------------------|
E-----------------------------------|-----------------------------|

E-------14--------15---------17-------|----15----------14--------------
B--/15-----15---------15---------15------|-----15----------15----------
G-------------14----------14---------14|-----------14----------14---17b
D-------------------------------|--------------------------------------
A-------------------------------|--------------------------------------
E-------------------------------|--------------------------------------
THE END...
I guess this is how they play it. Any comment or just anything, pls feel free to contact me.  
:: Ultimate Guitar Archive :: 
http://www.ultimate-guitar.com 



Comments