Fireball Ministry - Daughter Of The Damned Chords & Tabs

 

Daughter Of The Damned Chords & Tabs

Fireball Ministry Chords & Tabs

Version: 2 Type: Tab 0 ratings
1 star 2 stars 3 stars 4 stars 5 stars
comments

Daughter Of The Damned Tab

   
-------------------------------------------------------------------------------
			     Daughter of The Damned - Fireball Ministry
-------------------------------------------------------------------------------
Tabbed by: Kit Kelchner
Email:heavyduty@bikerider.com

Tuning: Drop your deep E string down to C# - retune the rest of your strings
to it.  This is a Sabbath Tribute band using Iommi's classic tuning. I have
noted lyrics to mark the different riffs. 

e|-----|Intro riff---------------------------|
B|-----|-------------------------------------|
G|-----|-------------------------------------|Repeat 4 x's
D|-----|-------------------------------------|
A|-----|----5h7--5h7--5h7p5---5h7p5----------|
E|-/12\|-0-0----0---0---------------575--353-|

e|VERSE RIFF---------------------------------------------------------------|
B|Beyond... the life giving highway etc...---------------------------------|
G|-------------------------------------------------------------------------|
D|-------------------------------------------------------------------------|
A|7/9-99--7/9-99--7/9-99--12-12--------------------------------------------|
E|5/7-77--5/7-77--5/7-77--10-10--------------------------------------------|

e|-------------------------------------------------------------------------|
B|Tried giving it up, but it was already gone....--------------------------|
G|-------------------------------------------------------------------------|
D|5-5-5-5-5-5---5-7--7/9-99--7/9-99--7/9-99--7/9-99------------------------|
A|3-3-3-3-3-3-0-3-5--5/7-77--5/7-77--5/7-77--5/7-77------------------------|
E|-------------------------------------------------------------------------|
[ Tab from: http://www.guitartabs.cc/tabs/f/fireball_ministry/daughter_of_the_damned_tab_ver_2.html ]
e|-------------------------------------------------------------------------|
B|For the weight of the world...  (this riff ends different)---------------|
G|-------------------------------------------------------------------------|
D|5-5-5-5-5-5---5-7--7/9-99--7/9-99--7/9-99--12-12-------------------------|
A|3-3-3-3-3-3-0-3-5--5/7-77--5/7-77--5/7-77--10-10-------------------------|
E|-------------------------------------------------------------------------|

e|Too many fools...-----|-Broke down the walls...|
B|----------------------|------------------------|
G|----------------------|------------------------|
D|2-2-45----------------|-2-2-45-----4-----------|
A|0-0-23------2---------|-0-0-23-----2-----------|
E|-------3-5\-0---------|--------3-5-------------|

e|Chorus--------------------------------------------------------------|
B|If I waited to long...----To make right...--It Was innocent-...-----|
G|--------------------------------------------------------------------|
D|9--7/9-----------------9\7----5/7-----------------------------------|
A|7--5/7-----------------7\5----3/5---------------------7-5/7---------|
E|0-----------------------------------------------------5-3/5---------|

e|---------------------------------|
B|-Only innocent...----------------|
G|---------------------------------|Repeat
D|---------------------------------|
A|----7/9---10----9----------------|
E|----5/7---8-----7-------3--5-----|

e|-ending riffs-------|----------------------------|-----|
B|--------------------|----------------------------|-----|
G|--------------------|------------0h2p0-----------|-----|
D|---------1/4 bend---|-----2p0h2--------0h1h2-----|-----|
A|--------------------|----------------------------|-22--|
E|0-0-2-3--5'-5---0---|--00------------------------|-00--|



| /  slide up
| \  slide down
| h  hammer-on
| p  pull-off
| ~  vibrato
| +  harmonic
| x  Mute note
===============================================================================
Comments