Fire Inside - God Called In Sick Today Chords & Tabs

 

God Called In Sick Today Chords & Tabs

Fire Inside Chords & Tabs

Version: 1 Type: Tab 0 ratings
1 star 2 stars 3 stars 4 stars 5 stars
comments

God Called In Sick Today Tab

Artist:AFI
Album:Black Sails in the sunset
Title:God Called In Sick Today

This is my first tab so I hope it isn't too bad. 
This is also my version of the song it has been slightly altered.

clean
|-----------------------------------------------------------|
|-----------------------------------------------------------|
|----3-----3----------2---2--------2----2--------3-----3----|
|-5-5-5-5-5-5-5--3-3-3-3-3-3--0-0-0-0-0-0-0--1-1-1-1-1-1-1--|
|-----------------------------------------------------------|
|-----------------------------------------------------------|
[ Tab from: http://www.guitartabs.cc/tabs/f/fire_inside/god_called_in_sick_today_tab.html ]
clean
|-----------------------------------------------------------|
|-----------------------------------------------------------|
|----3-----3---------2---2--------2-3-2-0-------3-----3-----|
|-5-5-5-5-5-5-5--3-3-3-3-3-3--0-3--------2-0--1-1-1-1-1-1-1-|
|-----------------------------------------------------------|
|-----------------------------------------------------------|

clean to distortion
|--------------------------------------------------------------------|
|-3-3-3-3-3-3-3-3--2-2-2-2-2-2-2-2--2-2-2-2-2-2-2-2--3-3-3-3-3-3-3-3-|
|-5-5-5-5-5-5-5-5--3-3-3-3-3-3-3-3--0-0-0-0-0-0-0-0--1-1-1-1-1-1-1-1-|
|--------------------------------------------------------------------|
|--------------------------------------------------------------------|
|--------------------------------------------------------------------|
 pm pm pm pm pm pm pm pm pm pm pm    

Main Riff
|-------------------------------------------|
|-------------------------------------------|
|-------------------------------------------|
|-3--3-3-3/5-5-5-5-5------------------------|
|-1--1-1-1/3-3-3-3-3-5--5-5-5/3-3-3-3-3-3-3-|
|--------------------3--3-3-3/1-1-1-1-1-1-1-|


thats all i know but most of the song is that palm muted in a different way.
Comments