Finntroll - Rk Chords & Tabs

 

Rk Chords & Tabs

Finntroll Chords & Tabs

Version: 1 Type: Tab 0 ratings
1 star 2 stars 3 stars 4 stars 5 stars
comments

Rk Tab

%This file is the tab of a song of the Finntroll band and it is legal for private study and 

scolarship. I only represents the author's interpretation.%

Band: Finntroll
Album:Nattfödd
Song: Rök
/  - slide up to        Version 1.0 09/25/04
p  - pull off
Transcribed by: Pika
e-mail: anacronismosingular@hotmail.com
Regular tuning
PART 1
e|--------------------------------|--------------------------------|
B|--------------------------------|--------------------------------|
G|--------------------------------|----7---9------5-5/7------------|
D|-----7----------3---2---0-------|--------------------------------|
A|--------------------------------|--------------------------------|
E|--------------------------------|--------------------------------|

e|--------------------------------|--------------------------------|
B|--------------------------------|--------8--10---6---------------|
G|--------------------------------|--7----------------7------------|
D|-----7----------3---2---0-------|--------------------------------|
A|--------------------------------|--------------------------------|
E|--------------------------------|--------------------------------|
[ Tab from: http://www.guitartabs.cc/tabs/f/finntroll/rk_tab.html ]
PART 2
e|--------------------------------|
B|-----8---8-----8-----6----------|
G|-----7------7-----7-----5-5p7---|
D|-----5--------------------------|
A|--------------------------------|
E|--------------------------------|
                                                   (2X)
e|-----------------------------------------------|--------------------------|
B|-----8---8-----8-----6-------------------------|--------------------------|
G|-----7------7-----7-----5-5p7-5--3--2p3-2------|-----3p5-3--2-2p3-2-------|
D|-----5------------------------------------3-3p5|---------------------3-3p5|
A|-----------------------------------------------|--------------------------|
E|-----------------------------------------------|--------------------------|
                                                   (2X)
e|-----------------------------------------------|--------------------------|
B|-----8---8-----8-----6-------------------------|--------------------------|
G|-----7------7-----7-----5-5p7-5--3--2p3-2------|-----3p5-3--2-2p3-2-------|
D|-----5------------------------------------3-3p5|---------------------3-3p5|
A|-----------------------------------------------|--------------------------|
E|-----------------------------------------------|--------------------------|
After that, repeat PART 1 untill the end.=D Any corrections, sugestions or complains just e-mail me.
Comments