Finley - Tutto Possibile Chords & Tabs

 

Tutto Possibile Chords & Tabs

Finley Chords & Tabs

Version: 2 Type: Tab 0 ratings
1 star 2 stars 3 stars 4 stars 5 stars
comments

Tutto Possibile Tab

intro
-----------------------------|-----------------------------|-----------------------------|
-----7--7--7--7--7--7--7--7--|-----7--7--7--7--7--7--7--7--|-----------------------------|
-----7--7--7--7--7--7--7--7--|-----7--7--7--7--7--7--7--7--|-----9--9--9--9--9--9--9--9--|
-----5--5--5--5--5--5--5--5--|-----4--4--4--4--4--4--4--4--|-----9--9--9--9--9--9--9--9--|
-----------------------------|-----------------------------|-----7--7--7--7--7--7--7--7--|

-----------------------------|
-----------------------------|
--------------------9--6-----|
-----7--7--7--7-----9--6-----|
-----7--7--7--7-----7--4-----|
-----5--5--5--5--------------|
                     x2
-----------------------------|-----------------------------|-----------------------------|
-----------------------------|-----------------------------|-----------------------------|
-----7--7--7--7--7--7--7--7--|-----6--6--6--6--6--6--6--6--|-----------------------------|
-----7--7--7--7--7--7--7--7--|-----6--6--6--6--6--6--6--6--|-----9--9--9--9--9--9--9--9--|
-----5--5--5--5--5--5--5--5--|-----4--4--4--4--4--4--4--4--|-----9--9--9--9--9--9--9--9--|
-----------------------------|-----------------------------|-----7--7--7--7--7--7--7--7--|
[ Tab from: http://www.guitartabs.cc/tabs/f/finley/tutto_possibile_tab_ver_2.html ]
-----------------------------|
-----------------------------|
-----------------------------|
-----7--7--7--7--7--7--7--7--|
-----7--7--7--7--7--7--7--7--|
-----5--5--5--5--5--5--5--5--|
               x 3 volte 
chorus
-----------------------|--------------------------------|-----------------------|------------------------------------|
-----------------------|--------------------------------|-----------------------|------------------------------------|
-----7-----5--4--5--7--|-----5--4--5--7-----5--4--5-----|-----7-----5--4--5--7--|-----5--4--5--7-----5--4--5---------|
-----------------------|-----------------------------7--|-----------------------|-----------------------------7--8--5|
-----------------------|--------------------------------|-----------------------|------------------------------------|

(1 volta intro)

-----------------------------|
-----------------------------|
-----7------6----------------|
-----7------6----------------|
-----5------4----------------|
-----------------------------|

(bridge)


dopo il ritornello

palm mute

-----------------------------|-----------------------------|-----------------------------|
-----------------------------|-----------------------------|-----------------------------|
-----7--7--7--7--7--7--7--7--|-----7--7--7--7--7--7--7--7--|-----------------------------|
-----7--7--7--7--7--7--7--7--|-----7--7--7--7--7--7--7--7--|-----9--9--9--9--9--9--9--9--|
-----5--5--5--5--5--5--5--5--|-----4--4--4--4--4--4--4--4--|-----9--9--9--9--9--9--9--9--|
-----------------------------|-----------------------------|-----7--7--7--7--7--7--7--7--|

-----------------------------|
-----------------------------|
--------------------9--6-----|
-----7--7--7--7-----9--6-----|
-----7--7--7--7-----7--4-----|
-----5--5--5--5--------------|
quando dice "stop!"

solo

-----------------------------------|
-----------------------------------|
-----7--5--4-----4--5--7--5--4-----|
--------------6-----------------7--|
-----------------------------------|
-----------------------------------|
          x 2 volte
Comments