Finkelstiens - Good Life Chords & Tabs

 

Good Life Chords & Tabs

Finkelstiens Chords & Tabs

Version: 1 Type: Tab 0 ratings
1 star 2 stars 3 stars 4 stars 5 stars
comments

Good Life Tab

   
----------------------------------------------------------------------------
	  Good Life - The Finkelstiens: tabbed by Jared
----------------------------------------------------------------------------

Tuning: standard

 /     Slide up
 \     Slide down
 h     Hammer-on
 /( )  Play note and slide up
 \( )  Play note and slide down
 p     Pull-off
 ~     Let Ring
 X     Mute note


Intro: Bass

Verse:
E|-------------------------------|
B|-------------------------------|
G|-----------------------7-7-7---|
D|-7-7-7--2-2-2---5-5-5--7-7-7---|  x3
A|-7-7-7--2-2-2---5-5-5--5-5-5---|
E|-5-5-5--0-0-0---3-3-3----------|

E|-------------------------------------|
B|-------------------------------------|
G|-----------------------7-7-7--7--7---|
D|-7-7-7--2-2-2---5-5-5--7-7-7--7--7---|  x1
A|-7-7-7--2-2-2---5-5-5--5-5-5--5--5---|
E|-5-5-5--0-0-0---3-3-3----------------|


Pre-chorus:
E|--------------------------------------|
B|--------------------------------------|
G|--------------------------------------|
D|-7--7--7--2--2--2--5--5--5--2--2--2---|  x1
A|-7--7--7--2--2--2--5--5--5--2--2--2---|
E|-5--5--5--0--0--0--3--3--3--0--0--0---|


Chorus:
E|-----------------------------------|
B|-----------------------------------|
G|-5-5-5-5---------------------------|
D|-5-5-5-5-5-5-5-5-3-3-3-3-3-3-3-3---|  x4
A|-3-3-3-3-5-5-5-5-3-3-3-3-3-3-3-3---|
E|---------3-3-3-3-1-1-1-1-1-1-1-1---|


Verse:
E|-------------------------------|
B|-------------------------------|
G|-----------------------7-7-7---|
D|-7-7-7--2-2-2---5-5-5--7-7-7---|  x9
A|-7-7-7--2-2-2---5-5-5--5-5-5---|
E|-5-5-5--0-0-0---3-3-3----------|

E|-------------------------------------|
B|-------------------------------------|
G|-----------------------7-7-7--7--7---|
D|-7-7-7--2-2-2---5-5-5--7-7-7--7--7---|  x1
A|-7-7-7--2-2-2---5-5-5--5-5-5--5--5---|
E|-5-5-5--0-0-0---3-3-3----------------|

[ Tab from: http://www.guitartabs.cc/tabs/f/finkelstiens/good_life_tab.html ]
Pre-chorus:
E|--------------------------------------|
B|--------------------------------------|
G|--------------------------------------|
D|-7--7--7--2--2--2--5--5--5--2--2--2---|  x1
A|-7--7--7--2--2--2--5--5--5--2--2--2---|
E|-5--5--5--0--0--0--3--3--3--0--0--0---|


Chorus:
E|-----------------------------------|
B|-----------------------------------|
G|-5-5-5-5---------------------------|
D|-5-5-5-5-5-5-5-5-3-3-3-3-3-3-3-3---|  x4
A|-3-3-3-3-5-5-5-5-3-3-3-3-3-3-3-3---|
E|---------3-3-3-3-1-1-1-1-1-1-1-1---|


Solo:
Guitar1:
E|-
B|-
G|-
D|-
A|-
E|-

Guitar2:
E|--------------------------------------|
B|--------------------------------------|
G|--------------------------------------|
D|-7--7--7--2--2--2--5--5--5--2--2--2---|  x3
A|-7--7--7--2--2--2--5--5--5--2--2--2---|
E|-5--5--5--0--0--0--3--3--3--0--0--0---|

E|-----------------------------------------|
B|-----------------------------------------|
G|-----------------------------------------|
D|-7--7--7--2--2--2--5--5--5--2--2--2--7---|  x1
A|-7--7--7--2--2--2--5--5--5--2--2--2--7---|
E|-5--5--5--0--0--0--3--3--3--0--0--0--5---|


Pre-chorus:
E|--------------------------------------|
B|--------------------------------------|
G|--------------------------------------|
D|-7--7--7--2--2--2--5--5--5--2--2--2---|  x1
A|-7--7--7--2--2--2--5--5--5--2--2--2---|
E|-5--5--5--0--0--0--3--3--3--0--0--0---|


Chorus:
E|-----------------------------------|
B|-----------------------------------|
G|-5-5-5-5---------------------------|
D|-5-5-5-5-5-5-5-5-3-3-3-3-3-3-3-3---|  x5
A|-3-3-3-3-5-5-5-5-3-3-3-3-3-3-3-3---|
E|---------3-3-3-3-1-1-1-1-1-1-1-1---|

E|-------------------------------------|
B|-------------------------------------|
G|-5-5-5-5-----------------------------|
D|-5-5-5-5-5-5-5-5-3-3-3-3-3-3-3-3-7---|  x1
A|-3-3-3-3-5-5-5-5-3-3-3-3-3-3-3-3-7---|
E|---------3-3-3-3-1-1-1-1-1-1-1-1-5---|
Comments