Finger Eleven - Walking In My Shoes Chords & Tabs

 

Walking In My Shoes Chords & Tabs

Finger Eleven Chords & Tabs

Version: 1 Type: Tab 0 ratings
1 star 2 stars 3 stars 4 stars 5 stars
comments

Walking In My Shoes Tab

"Walking in My Shoes"
Performed by: Finger Eleven
From the Wind-up/BMG
release:"The Greyest of Blue Skies"
By: Mybaldhand@aol.com

Intro A/Riff A (Clean)--
========================
1:----------------------------------------------------------------
2:----------2--------------------------7--------------------0-----
3:----3--------------------------8----------------------3------3--
4:-------1--------------------------6--------------4--------------
5:----------------------------------------------2-----------------
6:-1--------------------------6-----------------------------------

Intro B (w/ Distortion)--
=========================
1:----------------------------------------------------------------
2:----------2--------------------------6--------------------0-----
3:-------3--3--------------------------8----------------3------3--
4:-1--------1-----------------6-----6--6-----------4--------------
5:-1--------------------------6-----------------2-----------------
6:-1--------------------------6--------------4--------------------

1:-------------------------------------------------------------------------
2:----------2--------------------------------------------------------------
3:--------3-3--------------------------------------------------------------
4:-1--------1--------------------------------------------------------------
5:-1--------------------------------------------3b-(4)-(3)-(4)-(3)-(4)-(3)-
6:-1-----------------------------------------------------------------------
					      *|-------------------------|

*Pick only the first note and bend up and down a half-step to indicated frets.

Verse (Clean and Volume Swell)--
================================
1:------------------------------------------------------
2:----------------------------14---14-------------------
3:----------------------------11------10---10/8---------
4:------------------------------------------------------
5:------------------------------------------------------
6:------------------------------------------------------

Pre-Chorus A (w/ Distortion)--
==============================
1:-----------------------------
2:-----------------------------
3:-6---6-6-6-------------------
4:-6---6-6-6---0-1---1-1-1---1-
5:-4---4-4-4---0-1---1-1-1---1-
6:-------------0-1---1-1-1---1-
[ Tab from: http://www.guitartabs.cc/tabs/f/finger_eleven/walking_in_my_shoes_tab.html ]
Pre-Chorus B (w/ Distortion)--
==============================
1:----------------------------------------------------------
2:----------------------------------------------------------
3:-6---6-6-6------------------------------------------------
4:-6---6-6-6---0-4-----0------------------------------------
5:-4---4-4-4---0-4-----0-----2~-----------------------------
6:-------------0-4-----0--------------------6~--------------

Chorus A (w/ Distortion)--
==========================
1:---------------------------------------------------------
2:---------------------------------------------------------
3:---------------------------------------------------------
4:-1---1-1-1---1-8---8-8-8---8-9---9-9-9---9-6---6-6-6-6-6-
5:-1---1-1-1---1-8---8-8-8---8-9---9-9-9---9-6---6-6-6-6-6-
6:-1---1-1-1---1-8---8-8-8---8-9---9-9-9---9-6---6-6-6-6-6-

Chorus B (w/ Distortion)--
==========================
1:--------------------------------------
2:--------------------------------------
3:--------------------------------------
4:-9---9-9-9---9-11--11---11---11-11-11-
5:-9---9-9-9---9-11--11---11---11-11-11-
6:-9---9-9-9---9-11--11---11---11-11-11-

Chorus End (w/ Distortion)--
============================
1:---
2:---
3:---
4:-1-
5:-1-
6:-1-

Solo (w/ Distortion)--
======================
1:-18~------------------------------18------18-18-18-18-19-19-19-19-19-19-\11-
2:--------19--18~----19~--/21\19--------21------------------------------------
3:----------------------------------------------------------------------------
4:----------------------------------------------------------------------------
5:----------------------------------------------------------------------------
6:----------------------------------------------------------------------------

1:-/18---18-18---\11--/19-19-19-19-19-19b-19b-19b-19b-19b-19b-19b-
2:----------------------------------------------------------------
3:----------------------------------------------------------------
4:----------------------------------------------------------------
5:----------------------------------------------------------------
6:----------------------------------------------------------------
                                     *|--------------------------|
*Slowly bend to C

Riff B (w/ Distortion)--
========================
1:-----------------------------------------------------------
2:-----------------------------------------------------------
3:-6---6-6-6-----------------4-4-4-4-4-4-4-4-4-4-4-4-4-4-4-4-
4:-6---6-6-6---0-4-----0-----4-4-4-4-4-4-4-4-4-4-4-4-4-4-4-4-
5:-4---4-4-4---0-4-----0-----2-2-2-2-2-2-2-2-2-2-2-2-2-2-2-2-
6:-------------0-4-----0-------------------------------------

1:---------------------------------
2:---------------------------------
3:---------------------------------
4:-6-6-6-6-6-6-6-6-6-6-6-6-6-6-6-6-
5:-6-6-6-6-6-6-6-6-6-6-6-6-6-6-6-6-
6:-6-6-6-6-6-6-6-6-6-6-6-6-6-6-6-6-

End on D 

Comments