Finger Eleven - Tip Chords & Tabs

 

Tip Chords & Tabs

Finger Eleven Chords & Tabs

Version: 2 Type: Bass Tab 0 ratings
1 star 2 stars 3 stars 4 stars 5 stars
comments

Tip Bass Tab

   
BASS TAB
ARTIST:finger eleven
TITLE:tip
TABBED BY:THE WARLORD 

standard tuning (5-skin)

intro/verse:
A:---------------1-1-1---1--+
E:---0-0-0---0-0------------+
B:-2------------------------+


octaves part:
D:--6---6---6-----------6---6---6-------------+
A:--------------------------------------------+
E:----4---4----4-5-5-5----4---4---4--7-7-7-7--+

then:
A:--4-4-4-4--5-7-5-4--4-4-4-4-5-7-5-4--+
[ Tab from: http://www.guitartabs.cc/tabs/f/finger_eleven/tip_btab_ver_2.html ]
back to firsst part of octaves, then bass fill:
G:------6-6--------4-4-4-4-------------------4h6--+
D:-------------------------4-4-4--4-4-4---4h6-----+
A:-4-4-4----7-7-7------------------------4--------+
repeat that except for the last two hammer ons

start from the top, then the classic finger eleven 
move of slwer chords from the low end of the scale 
(this happens in every song)

slower part:
E:-------5--------4--4-2h4-+
B:--2---------3------------+

end that after 6 with:
E:-4-2-4-2-4-2-5-5-5-5-+

then:
D:-6---6---6-------------+
A:-----------------------+
E:---4---4---4--7-7-7-7--+

and it all happens in a slighly different order. thats 
all you need to know. have fun, bitches.


W.L.
Comments