Finger Eleven - Thousand Mile Wish Chords & Tabs

 

Thousand Mile Wish Chords & Tabs

Finger Eleven Chords & Tabs

Version: 1 Type: Bass Tab

Thousand Mile Wish Bass Tab

   
Im posting this cuz after knowing the song for awhile, I checked out the tabs and it 
me off that every freakin tab is shown being an octave lower.

anyways..

I have a 6-string bass, so in the chorus I tend to switch up a bit n'play the low D and 
 Also, he does some lil licks that I didnt include, so if you'd want to do those, great, 
not, then its not a big deal.

The bridge is correct for the octaves, but the lick is something I just do.


Title: Thousand Mile Wish
Artist: Finger Eleven
Tabbed by: Blasko2001

Standard Tuning (E, A, D, G)

Acoustic Guitar Intro

Bass Entry (0:25) Main Riff
G--------------------------------------------------------------------------|
D--------------------------------------------------------------------------|
A------16--\21----------16--\21--\23-----/19---19----/14------19---19--/14-|
E---14--------------14-----------------------------------------------------|    4x

Chorus (1:11)
G-------------------------|
D-------------------------|
A-----5-5-5-5557-7-7-777-|
E-------------------------|   3x

Post Chorus (1:28)
G--------|
D--------|
A5-5-5--|
E--------|
[ Tab from: http://www.guitartabs.cc/tabs/f/finger_eleven/thousand_mile_wish_btab.html ]
Main Riff (1:34)
G--------------------------------------------------------------------------|
D--------------------------------------------------------------------------|
A------16--\21----------16--\21--\23-----/19---19----/14------19---19--/14-|
E---14--------------14-----------------------------------------------------|    4x

Chorus (2:20)
G-------------------------|
D-------------------------|
A-----5-5-5-5557-7-7-777-|
E-------------------------|   4x

Bridge (2:43)
G-----------------------|
D-----4------5-3-5h-3---|
A---------------------5-|
E--2-----3--------------| 4x

G----------------------------|
D----------------------------|
A---------------------7~ ----|
E14~------------------------|


Main Riff (3:18)
G--------------------------------------------------------------------------|
D--------------------------------------------------------------------------|
A------16--\21----------16--\21--\23-----/19---19----/14------19---19--/14-|
E---14--------------14-----------------------------------------------------|    2x

Chorus (3:41)
G----------------------------------------|
D----------------------------------------|
A-----5-5-5-5557-7-7-777----------------|
E----------------------------------------|   4x

Bridge (4:04)
G-----------------------|
D-----4------5-3-5h-3---|
A---------------------5-|
E--2-----3--------------| 12x

End (3:39)
G---------------|
D---------------|
A---------------|
E---14~ --------|