Finger Eleven - Thin Spirits Chords & Tabs

 

Thin Spirits Chords & Tabs

Finger Eleven Chords & Tabs

Version: 3 Type: Tab 0 ratings
1 star 2 stars 3 stars 4 stars 5 stars
comments

Thin Spirits Tab

FINGER ELEVEN-THIN SPIRITS
tabbed by:Dan(Haven)Medeiros
e-mail me at:Thatguy@crapmail.com

I've allways wanted to tab this song but i was just too lazy,
and i figured "hey knowone has tabbed this song yet so i guess i might as well"
and if your wondering, this is right

this song is played in drop d with the string tuned down to flats.

Intro/verse:

e-----------------|    repeat
b----------8-7----|
g-----------------|
d-----7-----------|
a---7---7---------|
D-7---------------|

Pre-chorus:
[ Tab from: http://www.guitartabs.cc/tabs/f/finger_eleven/thin_spirits_tab_ver_3.html ]
e---------------------------------|      repeat
b---------------------------------|
g-----------------4-4-4-4-4-4-4---|
d-3-3-3-3-3-3-3---X-X-X-X-X-X-X---|
a-3-3-3-3-3-3-3---2-2-2-2-2-2-2---|
D-3-3-3-3-3-3-3-------------------|

Chorus:

e-----------------------------------|     repeat
b-----------------------------------|
g-2-2-2-----------------------------|
d-2-2-2---2-2-2---3-3-3/-8-8-8-8----|
a-0-0-0---2-2-2---3-3-3/-8-8-8-8----|
D---------2-2-2---3-3-3/-8-8-8-8----|

Solo:

e------------------------------------------------------|     repeat
b--15-15-15-15-15-15-15-15-----------------------------|
g--14-14-14-14-14-14-14-14---16p14-16p14-16p14-16p14---|
d------------------------------------------------------|
a------------------------------------------------------|
D------------------------------------------------------|
Comments