Finger Eleven - Therapy Chords & Tabs

 

Therapy Chords & Tabs

Finger Eleven Chords & Tabs

Version: 2 Type: Tab 0 ratings
1 star 2 stars 3 stars 4 stars 5 stars
comments

Therapy Tab

-------------------------------------------------------------------------------
			     Therapy - Finger Eleven
-------------------------------------------------------------------------------
Tabbed by:Jacob Belisario AKA J_dawg2992
Email:J_dawg2992@msn.com

Tuning:Tune a half step down (all Finger Eleven songs are in this tuning)



Intro  (00.09 seconds)
|--------5-----0-----0--0h1-----0----------|
|-------6-----1-----3----------3-----------|
|------7-----2-----3----------2-(3)--------| }2x
|-----0-----0-----0----------0-------------|
|----0-----0-----0----------0--------------|
|---0-----0-----0----------0---------------|
"Wide awakened out of spinning..."




Verse 1
|----------------------------------------|
|----------------------------------------|
|----------------14/---------------7-----|}4x
|--x-------x-----12/--x------x-----9-----|
|--x-7b8---x7b8--12/--x7b8---x7b8--9-----|
|--x-------x----------x------x-----------|

|---------------------------------------10---------|
|---------------------------------------------14/--|
|----------------14/-------------------12-12--12/--|
|--x-------x-----12/--x------x---x---12-----1212/--|
|--x-7b8---x7b8--12/--x7b8---x7b8x-10--------------|
|--x-------x----------x------x---x-----------------|

Pre-Chorus:
|----------------55---5---55---5--|
|----------------66---6---66---6--|
|----------------77---7---77---7--|
|---0-0-0-0-0---------------------|}3x
|---------------------------------|
|--5-8-5-8-5---0----0---0----0----|

|------------------------|
|------------------------|
|------------------------|
|---0-0-0-0-0-0-0--0-0---|
|------------------------|
|--5-8-5-8-5-7-8-10-8-7--|

Chorus:

Guitar 1
[ Tab from: http://www.guitartabs.cc/tabs/f/finger_eleven/therapy_tab_ver_2.html ]
|--------------------------------------------------------------|
|--------------------------------------------------------------|
|--/14--7-/12---------/12--5--10--------10---14/15\14---12--7--|
|----x--x---x--10-10----x--x---x--8-8----x----x--x--x----x--7--|}2x
|--/12--5-/10--10-10--/10--3---8--8-8----8---12/14\12---10--5--|
|--------------10-10--------------8-8--------------------------|

Guitar 2

|--------------------------------------------------------------|
|-----------------------------------------------------------3--|
|---------------5-5---------------3-3---3-------------------2--|
|---12----------5-5----10---------3-3---3----------------5--0--|}2x
|---12----------3-3----10---------1-1---1----------------5--0--|
|---12-----------------10--------------------------------5--0--|


Bridge:

Guitar 1
|--------------------------------------------------------|
|--------------------------------------------------------|
|--------------------------------------------------------|
|------8\-----7h8-7------------------------8\-----7h8-7--|
|--------------------------------------------------------|
|--8-------8--------0----0---0----0----8-------8---------|

Guitar 2
|---66---6---66---5---55---5---55---5---66---6---66---5--|
|---66---6---66---6---66---6---66---6---66---6---66---6--|
|---77---7---77---7---77---7---77---7---77---7---77---7--|
|--------------------------------------------------------|
|--------------------------------------------------------|
|--------------------------------------------------------|


|---------------|
|---------------|
|---------------|
|---0-0--0-0----|
|---------------|
|--7-8-10-8-7\--|


That should be it :)
This is all just a finished peice of the intro I submitted.
If there are any problems... please e-mail me. 
I think this is about 99.9% correct so please rate.

this tab has not been rated... please rate! i think it sounds great so just scroll up ad rate a 5 PLEASE!
Comments