Finger Eleven - Therapy Chords & Tabs

 

Therapy Chords & Tabs

Finger Eleven Chords & Tabs

Version: 1 Type: Tab 0 ratings
1 star 2 stars 3 stars 4 stars 5 stars
comments

Therapy Tab

-------------------------------------------------------------------------------
			     Therapy - Finger Eleven
-------------------------------------------------------------------------------
Tabbed by:Jacob Belisario AKA J_dawg2992
Email:J_dawg2992@msn.com

Tuning:Tune a half step down (all Finger Eleven songs are in this tuning)

[ Tab from: http://www.guitartabs.cc/tabs/f/finger_eleven/therapy_tab.html ]
Intro  (00.09 seconds)
|--------5-----0-----0--0h1-----0----------|
|-------6-----1-----3----------3-----------|
|------7-----2-----3----------2-(3)--------| }2x
|-----0-----0-----0----------0-------------|
|----0-----0-----0----------0--------------|
|---0-----0-----0----------0---------------|
"Wide awakened out of spinning..."




Verse 1
|----------------------------------------|
|----------------------------------------|
|----------------14/---------------7-----|}4x
|--x-------x-----12/--x------x-----9-----|
|--x-7b8---x7b8--12/--x7b8---x7b8--9-----|
|--x-------x----------x------x-----------|

|---------------------------------------10---------|
|---------------------------------------------14/--|
|----------------14/-------------------12-12--12/--|
|--x-------x-----12/--x------x---x---12-----1212/--|
|--x-7b8---x7b8--12/--x7b8---x7b8x-10--------------|
|--x-------x----------x------x---x-----------------|
Comments