Finger Eleven - Temporary Arms Chords & Tabs

 

Temporary Arms Chords & Tabs

Finger Eleven Chords & Tabs

Version: 1 Type: Bass Tab 0 ratings
1 star 2 stars 3 stars 4 stars 5 stars
comments

Temporary Arms Bass Tab

Temporary Arms - Finger Eleven

I play a five-string. This is in standard five-string tuning, if you don't have a five-string like I do, tune down - B,E,A,D (G is not used anyway)



Play this after guitar intro (heavy part)

G|------------------------------------
D|------------------------------------
A|------------------------------------
E|--2-2-2-2-2-2-2-2-2-2-2-------------  (just a bunch of 2's)
B|------------------------------------

After heavy part you play intro with the guitar

G|-------------------------------------
D|-------------------------------------
A|-1-1-1-2--1-1-1-2--------------------  (repeat until heavy part)
E|-------------------------------------
B|-------------------------------------

Heavy part…

G|------------------------------------
D|------------------------------------
A|------------------------------------
E|--2-2-2-2-2-2-2-2-2-2---------------
B|------------------------------------

Play this again until chorus…

G|-----------------------------------
D|-----------------------------------
A|-1-1-1-2--1-1-1-2------------------
E|-----------------------------------
B|-----------------------------------



Chorus - 
Play notes the amount of times you want, whatever sounds best
G|---------------------------------
D|---------------------------------
A|------------1/4-4-4-3-2----------
E|-----1--2------------------1-----
B|--4------------------------------

The play this until heavy part

G|---------------------------------------
D|---------------------------------------
A|-1-1-1--1-1-1---1-1-1--1-1-1-----------   (little pauses inbetween)
E|---------------------------------------
B|---------------------------------------

Heavy part
[ Tab from: http://www.guitartabs.cc/tabs/f/finger_eleven/temporary_arms_btab.html ]
G|-------------------------------------
D|-------------------------------------
A|-------------------------------------
E|--2-2-2-2-2-2-2-2-2-2-2-2------------   (I don't really know how many 2's you
B|-------------------------------------    play, just do it so it sounds right)

Play this again until chorus

G|-------------------------------------
D|-------------------------------------
A|-1-1-1--1-1-1---1-1-1--1-1-1-------- (little pauses inbetween)
E|-------------------------------------
B|-------------------------------------

Chorus

G|-------------------------------------
D|-------------------------------------
A|------------1/4-4-4--3--2------------
E|------1-2---------------------1------
B|---4---------------------------------

Then this (I think this is right)

G|------------------------------------------------
D|------------------------------------------------
A|-1-1-1-1-2-2-2--4-4-4-4--6-6--4-4---------------  (play a few times)
E|------------------------------------------------
B|------------------------------------------------

Then you play this

G|-----------------------------------------
D|-----------------------------------------
A|---------8-8----------------------------
E|--6-6----------9-9-----4-4-4----------
B|------------------------------------------

Then guitar plays intro thing again…

Then this - "Now I Need It, Now I Need It!!!"
Play notes as many times as you want..
G|-----------------------------
D|-----------------------------
A|--1-------6----------------- Sean does a few variations here
E|------2--------7------------ but these are the main notes
B|-----------------------------

Then play chorus until the end

G|----------------------------------------
D|----------------------------------------
A|--------------1/4-4-4-3--2--------------
E|------1--2---------------------1--------
B|--4-------------------------------------

That's it. It's a very easy song to play, but it's one of the best songs 
Off their first album (as Finger Eleven) Tip.

Any questions or corrections, or anything else, email me
 
 Mitch_fraser@hotmail.com (no caps if it makes a difference)



Comments