Finger Eleven - Swallowtail Chords & Tabs

 

Swallowtail Chords & Tabs

Finger Eleven Chords & Tabs

Version: 1 Type: Bass Tab 0 ratings
1 star 2 stars 3 stars 4 stars 5 stars
comments

Swallowtail Bass Tab

   
SONG-  SWALLOWTAIL

TUNING- Dropped D, and tuned 1/2 step down
      - Db Ab Db Gb

AUTHOR- trev@niagara.com

INTRO- Guitar1, no bass
VERSE 1- Guitar 1+2, no bass

VERSE 2-
g-----------------------------------------
d---------------------------------------- X 4
a----------------------------------------
d-0-0---12-12---8-8---7-7-7-/-10-10-
[ Tab from: http://www.guitartabs.cc/tabs/f/finger_eleven/swallowtail_btab.html ]
CHORUS 1-
g--------------------------------            -------------------
d-------------------------------- X3,   then -------------------
a--------------------------------            -------------------
d--9----5---0-------------------             --3-3-----7-7----0
We   all know.....                          an ugly butterfly"



BREAKDOWN-
g------------------------------------------------
d------------------------------------------------
a--3--3--3-----2--2--2-------------------------
d---------------------------3--3--3-----2--2--2


SOLO:
g--------------------------------------------------------------
d--------------------------------------------------------------
a-----0--2--4--5--7---9---10---9--7-------------------------
d-0--------------------------------------8---8--8-----3--3--3---7--7--7

END ON
G---
D---
A---
D-3-

Comments