Finger Eleven - Stay In Shadow Chords & Tabs

 

Stay In Shadow Chords & Tabs

Finger Eleven Chords & Tabs

Version: 1 Type: Tab 0 ratings
1 star 2 stars 3 stars 4 stars 5 stars
comments

Stay In Shadow Tab

Stay in Shadow - Finger Eleven
Drop D and a half step down
tabbed by YoYoJoe

Main Riff
|-----------------------|
|-----------------------|
|---3-5--5-7------------|
|-0-3-5--5-7--0-8--8--5-|
|-0-1-3--3-5--0-8--8--5-|
|-0-----------0-8--8--5-|

(No guitar in the first verse)

Chorus
|-------------------------------------------------------|
|-------------------------------------------------------|
|---------7\---------8--------7-------7-------7-------7-|
|-0-0-0-0-7\-4-4-4-4-8--------x-------x-------x-------x-|
|-0-0-0-0-5\-4-4-4-4-6--0-0-0-5-0-0-0-5-0-0-0-5-0-0-0-5-|
|-0-0-0-0----4-4-4-4----0-0-0---0-0-0---0-0-0---0-0-0---|

|-----------------------------------------------------|
|-----------------------------------------------------|
|---------7\---------8--------7-------7---------------|
|-0-0-0-0-7\-4-4-4-4-8--------x-------x---------------|
|-0-0-0-0-5\-4-4-4-4-6--0-0-0-5-0-0-0-5-0-0-0---0-0-0-|
|-0-0-0-0----4-4-4-4----0-0-0---0-0-0---0-0-0---0-0-0-|

Verse 2
|------------------------|
|------------------------|
|------------------------|
|------------------------| X4
|----3-5-5-5-7-----------|
|-0------------0-8--8--5-|
PM______________________

|------------------------|
|------------------------|
|------------------------|
|----5-7-7-7-9-----------| X4
|-0--3-5-5-5-7-0-8--8--5-|
|-0------------0-8--8--5-|

Verse 3
(starts at end of third chorus)
|-------------------------------------------------|
|-------------------------------------------------|
|-------------------------------------------------|
|-0-0-0-0-0-0-0-0-0-0-0-0-0-0-0-0-4-4-4-4-4-4-4-4-|
|-0-0-0-0-0-0-0-0-0-0-0-0-0-0-0-0-4-4-4-4-4-4-4-4-|
|-0-0-0-0-0-0-0-0-0-0-0-0-0-0-0-0-4-4-4-4-4-4-4-4-|

|----------------------------|
|----------------------------|
|----7-5-----5-----9-7-----7-|
|-0--7-5-----5--0--9-7-----7-|
|-0--5-3-3-3-3--0--7-5-5-5-5-|
|-0-------------0------------|
PM       ___           ___
[ Tab from: http://www.guitartabs.cc/tabs/f/finger_eleven/stay_in_shadow_tab.html ]
|-------------------------------------------------------------|
|-------------------------------------------------------------|
|-------------------------------------7-5-----5-----9-7-----7-|
|-0-0-0-0-0-0-0-0-4-4-4-4-4-4-4-4--0--7-5-----5--0--9-7-----7-|
|-0-0-0-0-0-0-0-0-4-4-4-4-4-4-4-4--0--5-3-3-3-3--0--7-5-5-5-5-|
|-0-0-0-0-0-0-0-0-4-4-4-4-4-4-4-4--0-------------0------------|
PM                                        ___           ___
|-------------------------------------------------------|
|-------------------------------------------------------|
|---------------------------------7----5----9----7----5-|
|-0-0-0-0-0-0-0-0-4-4-4-4-4-4-4-4-7----5----7----7----5-|
|-0-0-0-0-0-0-0-0-4-4-4-4-4-4-4-4-5----3----7----5----3-|
|-0-0-0-0-0-0-0-0-4-4-4-4-4-4-4-4-----------------------|
                                                      *
                                             This chord is only
                                             played by guitar 2
                                             while guitar 1
                                             starts the solo.

Solo
|-----------------------------------------------------------------------------|
|---------------------------------------------------------------13hb-11-13p11-|
|-1/-12---14-12--14p12\-/12-----------------12--14p12--12-12-12---------------|
|---------------------------/13-13-13-14-15-----------------------------------|
|-----------------------------------------------------------------------------|
|-----------------------------------------------------------------------------|

|-------------------------------------------------------------------------------|
|-------------------------------------13hb-11-16fb-----------13hb-11------------|
|-----------------14-12fb--r-12-12-12---------------12-12-12---------14-12fb--r-|
|-/13-13-13-14-15---------------------------------------------------------------|
|-------------------------------------------------------------------------------|
|-------------------------------------------------------------------------------|

|------------------------------------------------------|
|----------------------------------17fb-r----16fb-r----|
|-12hb-12(hb)-12(hb)-12(hb)r-12-12--------14--------18-|
|------------------------------------------------------|
|------------------------------------------------------|
|------------------------------------------------------|

Chorus 3
|-------------------------------------------------|
|-------------------------------------------------|
|-----------------------7-------7-------7-------7-|
|-0-0-0---4-4-4---------x-------x-------x-------x-| X2
|-0-0-0---4-4-4---0-0-0-5-0-0-0-5-0-0-0-5-0-0-0-5-|
|-0-0-0---4-4-4---0-0-0---0-0-0---0-0-0---0-0-0---|

|-------------------------------------------------------|
|-------------------------------------------------------|
|---------7\---------8--------7-------7-------7-------7-|
|-0-0-0-0-7\-4-4-4-4-8--------x-------x-------x-------x-|
|-0-0-0-0-5\-4-4-4-4-6--0-0-0-5-0-0-0-5-0-0-0-5-0-0-0-5-|
|-0-0-0-0----4-4-4-4----0-0-0---0-0-0---0-0-0---0-0-0---|

|-------------------------------------------------------|
|-------------------------------------------------------|
|---------7\---------8--------7-------7-----------------|
|-0-0-0-0-7\-4-4-4-4-8--------x-------x-0-0-0-0-0-0-0-0-|
|-0-0-0-0-5\-4-4-4-4-6--0-0-0-5-0-0-0-5-0-0-0-0-0-0-0-0-|
|-0-0-0-0----4-4-4-4----0-0-0---0-0-0---0-0-0-0-0-0-0-0-|

Outro
|-----------------------------------------------------------------|
|-----------------------------------------------------------------|
|---------------------------------------7-------7-------7-------7-|
|-0-0-0-0-0-0-0-0-4-4-4-4-4-4-4-4-------x-------x-------x-------x-|
|-0-0-0-0-0-0-0-0-4-4-4-4-4-4-4-4-0-0-0-5-0-0-0-5-0-0-0-5-0-0-0-5-|
|-0-0-0-0-0-0-0-0-4-4-4-4-4-4-4-4-0-0-0---0-0-0---0-0-0---0-0-0---|
                                                        *       *
|-----------|                          On last time dont play these
|-----------|
|-----------|
|-12hb-10~~-|
|-----------|
|-----------|
Comments