Finger Eleven - Sick Of It All Chords & Tabs

 

Sick Of It All Chords & Tabs

Finger Eleven Chords & Tabs

Version: 1 Type: Bass Tab 0 ratings
1 star 2 stars 3 stars 4 stars 5 stars
comments

Sick Of It All Bass Tab

Finger Eleven
"Sick of it all"
Greyest of Blue Skies
tunning : BEAD

DarkKarma17@aol.com

~ let ring

Bass doesn't come in for a few bars...
"Take a look how they found you..."
|------------------------|
|------------------------|
|--55-55-5-5--44-44-4/0--|
|------------------------|
[ Tab from: http://www.guitartabs.cc/tabs/f/finger_eleven/sick_of_it_all_btab.html ]
Very end of verse
"Sullen hearted..."
|--------------------------|
|-----------7777-6666------|
|---7-7-7-7----------------|
|---------------------2-0~-|

Chorus
|-------------------------------|
|------4---44-3-----------------|
|---------------------7-7-7-7---|
|--2-2---2------5-5-5-----------|

|----------------------|
|----------------------|
|--------7-------------|
|-10-9-7---10-9-10--2--|
*8 counts each...4/4, so it's easy

Comments